  0
SECTION
  2
HEADER
  9
$ACADVER
  1
AC1018
  9
$ACADMAINTVER
 70
     0
  9
$DWGCODEPAGE
  3
ASCII
  9
$INSBASE
 10
0.0
 20
0.0
 30
0.0
  9
$EXTMIN
 10
1.000000000000000E+20
 20
1.000000000000000E+20
 30
1.000000000000000E+20
  9
$EXTMAX
 10
-1.000000000000000E+20
 20
-1.000000000000000E+20
 30
-1.000000000000000E+20
  9
$LIMMIN
 10
0.0
 20
0.0
  9
$LIMMAX
 10
12.0
 20
9.0
  9
$ORTHOMODE
 70
     0
  9
$REGENMODE
 70
     1
  9
$FILLMODE
 70
     1
  9
$QTEXTMODE
 70
     0
  9
$MIRRTEXT
 70
     1
  9
$LTSCALE
 40
1.0
  9
$ATTMODE
 70
     1
  9
$TEXTSIZE
 40
0.2
  9
$TRACEWID
 40
0.05
  9
$TEXTSTYLE
  7
Standard
  9
$CLAYER
  8
0
  9
$CELTYPE
  6
ByLayer
  9
$CECOLOR
 62
   256
  9
$CELTSCALE
 40
1.0
  9
$DISPSILH
 70
     0
  9
$DIMSCALE
 40
1.0
  9
$DIMASZ
 40
0.18
  9
$DIMEXO
 40
0.0625
  9
$DIMDLI
 40
0.38
  9
$DIMRND
 40
0.0
  9
$DIMDLE
 40
0.0
  9
$DIMEXE
 40
0.18
  9
$DIMTP
 40
0.0
  9
$DIMTM
 40
0.0
  9
$DIMTXT
 40
0.18
  9
$DIMCEN
 40
0.09
  9
$DIMTSZ
 40
0.0
  9
$DIMTOL
 70
     0
  9
$DIMLIM
 70
     0
  9
$DIMTIH
 70
     1
  9
$DIMTOH
 70
     1
  9
$DIMSE1
 70
     0
  9
$DIMSE2
 70
     0
  9
$DIMTAD
 70
     0
  9
$DIMZIN
 70
     0
  9
$DIMBLK
  1

  9
$DIMASO
 70
     1
  9
$DIMSHO
 70
     1
  9
$DIMPOST
  1

  9
$DIMAPOST
  1

  9
$DIMALT
 70
     0
  9
$DIMALTD
 70
     2
  9
$DIMALTF
 40
25.4
  9
$DIMLFAC
 40
1.0
  9
$DIMTOFL
 70
     0
  9
$DIMTVP
 40
0.0
  9
$DIMTIX
 70
     0
  9
$DIMSOXD
 70
     0
  9
$DIMSAH
 70
     0
  9
$DIMBLK1
  1

  9
$DIMBLK2
  1

  9
$DIMSTYLE
  2
Standard
  9
$DIMCLRD
 70
     0
  9
$DIMCLRE
 70
     0
  9
$DIMCLRT
 70
     0
  9
$DIMTFAC
 40
1.0
  9
$DIMGAP
 40
0.09
  9
$DIMJUST
 70
     0
  9
$DIMSD1
 70
     0
  9
$DIMSD2
 70
     0
  9
$DIMTOLJ
 70
     1
  9
$DIMTZIN
 70
     0
  9
$DIMALTZ
 70
     0
  9
$DIMALTTZ
 70
     0
  9
$DIMUPT
 70
     0
  9
$DIMDEC
 70
     4
  9
$DIMTDEC
 70
     4
  9
$DIMALTU
 70
     2
  9
$DIMALTTD
 70
     2
  9
$DIMTXSTY
  7
Standard
  9
$DIMAUNIT
 70
     0
  9
$DIMADEC
 70
     0
  9
$DIMALTRND
 40
0.0
  9
$DIMAZIN
 70
     0
  9
$DIMDSEP
 70
    46
  9
$DIMATFIT
 70
     3
  9
$DIMFRAC
 70
     0
  9
$DIMLDRBLK
  1

  9
$DIMLUNIT
 70
     2
  9
$DIMLWD
 70
    -2
  9
$DIMLWE
 70
    -2
  9
$DIMTMOVE
 70
     0
  9
$LUNITS
 70
     2
  9
$LUPREC
 70
     4
  9
$SKETCHINC
 40
0.1
  9
$FILLETRAD
 40
0.5
  9
$AUNITS
 70
     0
  9
$AUPREC
 70
     0
  9
$MENU
  1
.
  9
$ELEVATION
 40
0.0
  9
$PELEVATION
 40
0.0
  9
$THICKNESS
 40
0.0
  9
$LIMCHECK
 70
     0
  9
$CHAMFERA
 40
0.5
  9
$CHAMFERB
 40
0.5
  9
$CHAMFERC
 40
1.0
  9
$CHAMFERD
 40
0.0
  9
$SKPOLY
 70
     0
  9
$TDCREATE
 40
2454992.454756944
  9
$TDUCREATE
 40
2454992.788090278
  9
$TDUPDATE
 40
2454992.454756956
  9
$TDUUPDATE
 40
2454992.78809029
  9
$TDINDWG
 40
0.0000000116
  9
$TDUSRTIMER
 40
0.0000000116
  9
$USRTIMER
 70
     1
  9
$ANGBASE
 50
0.0
  9
$ANGDIR
 70
     0
  9
$PDMODE
 70
     0
  9
$PDSIZE
 40
0.0
  9
$PLINEWID
 40
0.0
  9
$SPLFRAME
 70
     0
  9
$SPLINETYPE
 70
     6
  9
$SPLINESEGS
 70
     8
  9
$HANDSEED
  5
1DB
  9
$SURFTAB1
 70
     6
  9
$SURFTAB2
 70
     6
  9
$SURFTYPE
 70
     6
  9
$SURFU
 70
     6
  9
$SURFV
 70
     6
  9
$UCSBASE
  2

  9
$UCSNAME
  2

  9
$UCSORG
 10
0.0
 20
0.0
 30
0.0
  9
$UCSXDIR
 10
1.0
 20
0.0
 30
0.0
  9
$UCSYDIR
 10
0.0
 20
1.0
 30
0.0
  9
$UCSORTHOREF
  2

  9
$UCSORTHOVIEW
 70
     0
  9
$UCSORGTOP
 10
0.0
 20
0.0
 30
0.0
  9
$UCSORGBOTTOM
 10
0.0
 20
0.0
 30
0.0
  9
$UCSORGLEFT
 10
0.0
 20
0.0
 30
0.0
  9
$UCSORGRIGHT
 10
0.0
 20
0.0
 30
0.0
  9
$UCSORGFRONT
 10
0.0
 20
0.0
 30
0.0
  9
$UCSORGBACK
 10
0.0
 20
0.0
 30
0.0
  9
$PUCSBASE
  2

  9
$PUCSNAME
  2

  9
$PUCSORG
 10
0.0
 20
0.0
 30
0.0
  9
$PUCSXDIR
 10
1.0
 20
0.0
 30
0.0
  9
$PUCSYDIR
 10
0.0
 20
1.0
 30
0.0
  9
$PUCSORTHOREF
  2

  9
$PUCSORTHOVIEW
 70
     0
  9
$PUCSORGTOP
 10
0.0
 20
0.0
 30
0.0
  9
$PUCSORGBOTTOM
 10
0.0
 20
0.0
 30
0.0
  9
$PUCSORGLEFT
 10
0.0
 20
0.0
 30
0.0
  9
$PUCSORGRIGHT
 10
0.0
 20
0.0
 30
0.0
  9
$PUCSORGFRONT
 10
0.0
 20
0.0
 30
0.0
  9
$PUCSORGBACK
 10
0.0
 20
0.0
 30
0.0
  9
$USERI1
 70
     0
  9
$USERI2
 70
     0
  9
$USERI3
 70
     0
  9
$USERI4
 70
     0
  9
$USERI5
 70
     0
  9
$USERR1
 40
0.0
  9
$USERR2
 40
0.0
  9
$USERR3
 40
0.0
  9
$USERR4
 40
0.0
  9
$USERR5
 40
0.0
  9
$WORLDVIEW
 70
     1
  9
$SHADEDGE
 70
     3
  9
$SHADEDIF
 70
    70
  9
$TILEMODE
 70
     1
  9
$MAXACTVP
 70
    64
  9
$PINSBASE
 10
0.0
 20
0.0
 30
0.0
  9
$PLIMCHECK
 70
     0
  9
$PEXTMIN
 10
1.000000000000000E+20
 20
1.000000000000000E+20
 30
1.000000000000000E+20
  9
$PEXTMAX
 10
-1.000000000000000E+20
 20
-1.000000000000000E+20
 30
-1.000000000000000E+20
  9
$PLIMMIN
 10
0.0
 20
0.0
  9
$PLIMMAX
 10
12.0
 20
9.0
  9
$UNITMODE
 70
     0
  9
$VISRETAIN
 70
     1
  9
$PLINEGEN
 70
     0
  9
$PSLTSCALE
 70
     1
  9
$TREEDEPTH
 70
  3020
  9
$CMLSTYLE
  2
Standard
  9
$CMLJUST
 70
     0
  9
$CMLSCALE
 40
1.0
  9
$PROXYGRAPHICS
 70
     1
  9
$MEASUREMENT
 70
     0
  9
$CELWEIGHT
370
    -1
  9
$ENDCAPS
280
     0
  9
$JOINSTYLE
280
     0
  9
$LWDISPLAY
290
     1
  9
$INSUNITS
 70
     1
  9
$HYPERLINKBASE
  1

  9
$STYLESHEET
  1

  9
$XEDIT
290
     1
  9
$CEPSNTYPE
380
     0
  9
$PSTYLEMODE
290
     1
  9
$FINGERPRINTGUID
  2
{5B0FF824-641D-819C-2668-9FA41EA3DA58}
  9
$VERSIONGUID
  2
{FAEB1C32-E019-11D5-929B-00C0DF256EC4}
  9
$EXTNAMES
290
     1
  9
$PSVPSCALE
 40
0.0
  9
$OLESTARTUP
290
     0
  9
$SORTENTS
280
   127
  9
$INDEXCTL
280
     0
  9
$HIDETEXT
280
     1
  9
$XCLIPFRAME
290
     0
  9
$HALOGAP
280
     0
  9
$OBSCOLOR
 70
   257
  9
$OBSLTYPE
280
     0
  9
$INTERSECTIONDISPLAY
280
     0
  9
$INTERSECTIONCOLOR
 70
   257
  9
$DIMASSOC
280
     2
  9
$PROJECTNAME
  1

  0
ENDSEC
  0
SECTION
  2
CLASSES
  0
CLASS
  1
ACDBDICTIONARYWDFLT
  2
AcDbDictionaryWithDefault
  3
ObjectDBX Classes
 90
        0
 91
        3
280
     0
281
     0
  0
CLASS
  1
VISUALSTYLE
  2
AcDbVisualStyle
  3
ObjectDBX Classes
 90
     4095
 91
        3
280
     0
281
     0
  0
ENDSEC
  0
SECTION
  2
TABLES
  0
TABLE
  2
VPORT
  5
8
330
0
100
AcDbSymbolTable
 70
     1
  0
VPORT
  5
29
330
8
100
AcDbSymbolTableRecord
100
AcDbViewportTableRecord
  2
*Active
 70
     0
 10
0.0
 20
0.0
 11
1.0
 21
1.0
 12
0.0
 22
0.0
 13
0.0
 23
0.0
 14
0.5
 24
0.5
 15
0.5
 25
0.5
 16
0.0
 26
0.0
 36
1.0
 17
-331.258551779945
 27
264.40711880625
 37
0.0
 40
255.7640575510758
 41
1.6
 42
50.0
 43
0.0
 44
0.0
 50
0.0
 51
0.0
 71
     0
 72
   100
 73
     1
 74
     3
 75
     0
 76
     0
 77
     0
 78
     0
281
     0
 65
     1
110
0.0
120
0.0
130
0.0
111
1.0
121
0.0
131
0.0
112
0.0
122
1.0
132
0.0
 79
     0
146
0.0
  0
ENDTAB
  0
TABLE
  2
LTYPE
  5
5
330
0
100
AcDbSymbolTable
 70
     1
  0
LTYPE
  5
14
330
5
100
AcDbSymbolTableRecord
100
AcDbLinetypeTableRecord
  2
ByBlock
 70
     0
  3

 72
    65
 73
     0
 40
0.0
  0
LTYPE
  5
15
330
5
100
AcDbSymbolTableRecord
100
AcDbLinetypeTableRecord
  2
ByLayer
 70
     0
  3

 72
    65
 73
     0
 40
0.0
  0
LTYPE
  5
16
330
5
100
AcDbSymbolTableRecord
100
AcDbLinetypeTableRecord
  2
Continuous
 70
     0
  3
Solid line
 72
    65
 73
     0
 40
0.0
  0
ENDTAB
  0
TABLE
  2
LAYER
  5
2
330
0
100
AcDbSymbolTable
 70
     5
  0
LAYER
  5
10
330
2
100
AcDbSymbolTableRecord
100
AcDbLayerTableRecord
  2
0
 70
     0
 62
     7
  6
Continuous
370
    -3
390
F
  0
LAYER
  5
3B
330
2
100
AcDbSymbolTableRecord
100
AcDbLayerTableRecord
  2
background
 70
     0
 62
     7
  6
Continuous
370
    -3
390
F
  0
LAYER
  5
40
330
2
100
AcDbSymbolTableRecord
100
AcDbLayerTableRecord
  2
cut guides
 70
     0
 62
     7
  6
Continuous
370
    -3
390
F
  0
LAYER
  5
41
330
2
100
AcDbSymbolTableRecord
100
AcDbLayerTableRecord
  2
Layer 6
 70
     0
 62
     7
  6
Continuous
370
    -3
390
F
  0
LAYER
  5
79
330
2
100
AcDbSymbolTableRecord
100
AcDbLayerTableRecord
  2
Layer 3
 70
     1
 62
     7
  6
Continuous
370
    -3
390
F
  0
ENDTAB
  0
TABLE
  2
STYLE
  5
3
330
0
100
AcDbSymbolTable
 70
     1
  0
STYLE
  5
11
330
3
100
AcDbSymbolTableRecord
100
AcDbTextStyleTableRecord
  2
Standard
 70
     0
 40
0.0
 41
1.0
 50
0.0
 71
     0
 42
0.2
  3
txt
  4

  0
ENDTAB
  0
TABLE
  2
VIEW
  5
6
330
0
100
AcDbSymbolTable
 70
     0
  0
ENDTAB
  0
TABLE
  2
UCS
  5
7
330
0
100
AcDbSymbolTable
 70
     0
  0
ENDTAB
  0
TABLE
  2
APPID
  5
9
330
0
100
AcDbSymbolTable
 70
     1
  0
APPID
  5
12
330
9
100
AcDbSymbolTableRecord
100
AcDbRegAppTableRecord
  2
ACAD
 70
     0
  0
ENDTAB
  0
TABLE
  2
DIMSTYLE
  5
A
330
0
100
AcDbSymbolTable
 70
     1
100
AcDbDimStyleTable
  0
DIMSTYLE
105
27
330
A
100
AcDbSymbolTableRecord
100
AcDbDimStyleTableRecord
  2
Standard
 70
     0
340
11
  0
ENDTAB
  0
TABLE
  2
BLOCK_RECORD
  5
1
330
0
100
AcDbSymbolTable
 70
    12
  0
BLOCK_RECORD
  5
1F
330
1
100
AcDbSymbolTableRecord
100
AcDbBlockTableRecord
  2
*Model_Space
340
22
  0
BLOCK_RECORD
  5
1B
330
1
100
AcDbSymbolTableRecord
100
AcDbBlockTableRecord
  2
*Paper_Space
340
1E
  0
BLOCK_RECORD
  5
23
330
1
100
AcDbSymbolTableRecord
100
AcDbBlockTableRecord
  2
*Paper_Space0
340
26
  0
BLOCK_RECORD
  5
3C
330
1
100
AcDbSymbolTableRecord
100
AcDbBlockTableRecord
  2
block 2
340
0
102
{BLKREFS
331
3D
102
}
  0
BLOCK_RECORD
  5
49
330
1
100
AcDbSymbolTableRecord
100
AcDbBlockTableRecord
  2
block 3
340
0
102
{BLKREFS
331
4A
102
}
  0
BLOCK_RECORD
  5
4D
330
1
100
AcDbSymbolTableRecord
100
AcDbBlockTableRecord
  2
block 4
340
0
102
{BLKREFS
331
4E
102
}
  0
BLOCK_RECORD
  5
52
330
1
100
AcDbSymbolTableRecord
100
AcDbBlockTableRecord
  2
block 5
340
0
102
{BLKREFS
331
53
102
}
  0
BLOCK_RECORD
  5
57
330
1
100
AcDbSymbolTableRecord
100
AcDbBlockTableRecord
  2
block 6
340
0
102
{BLKREFS
331
58
102
}
  0
BLOCK_RECORD
  5
5C
330
1
100
AcDbSymbolTableRecord
100
AcDbBlockTableRecord
  2
block 7
340
0
102
{BLKREFS
331
5D
102
}
  0
BLOCK_RECORD
  5
61
330
1
100
AcDbSymbolTableRecord
100
AcDbBlockTableRecord
  2
block 8
340
0
102
{BLKREFS
331
62
102
}
  0
BLOCK_RECORD
  5
65
330
1
100
AcDbSymbolTableRecord
100
AcDbBlockTableRecord
  2
block 9
340
0
102
{BLKREFS
331
66
102
}
  0
BLOCK_RECORD
  5
6A
330
1
100
AcDbSymbolTableRecord
100
AcDbBlockTableRecord
  2
block 10
340
0
102
{BLKREFS
331
6B
102
}
  0
BLOCK_RECORD
  5
6F
330
1
100
AcDbSymbolTableRecord
100
AcDbBlockTableRecord
  2
block 11
340
0
102
{BLKREFS
331
70
102
}
  0
BLOCK_RECORD
  5
74
330
1
100
AcDbSymbolTableRecord
100
AcDbBlockTableRecord
  2
block 12
340
0
102
{BLKREFS
331
75
102
}
  0
ENDTAB
  0
ENDSEC
  0
SECTION
  2
BLOCKS
  0
BLOCK
  5
20
330
1F
100
AcDbEntity
  8
0
100
AcDbBlockBegin
  2
*Model_Space
 70
     0
 71
     0
 10
0.0
 20
0.0
 30
0.0
  3
*Model_Space
  1

  0
ENDBLK
  5
21
330
1F
100
AcDbEntity
  8
0
100
AcDbBlockEnd
  0
BLOCK
  5
1C
330
1B
100
AcDbEntity
 67
     1
  8
0
100
AcDbBlockBegin
  2
*Paper_Space
 70
     0
 71
     0
 10
0.0
 20
0.0
 30
0.0
  3
*Paper_Space
  1

  0
ENDBLK
  5
1D
330
1B
100
AcDbEntity
 67
     1
  8
0
100
AcDbBlockEnd
  0
BLOCK
  5
24
330
23
100
AcDbEntity
  8
0
100
AcDbBlockBegin
  2
*Paper_Space0
 70
     0
 71
     0
 10
0.0
 20
0.0
 30
0.0
  3
*Paper_Space0
  1

  0
ENDBLK
  5
25
330
23
100
AcDbEntity
  8
0
100
AcDbBlockEnd
  0
BLOCK
  5
3E
330
3C
100
AcDbEntity
  8
0
100
AcDbBlockBegin
  2
block 2
 70
     0
 71
     0
 10
0.0
 20
0.0
 30
0.0
  3
block 2
  1

  0
ENDBLK
  5
3F
330
3C
100
AcDbEntity
  8
0
100
AcDbBlockEnd
  0
BLOCK
  5
4B
330
49
100
AcDbEntity
  8
0
100
AcDbBlockBegin
  2
block 3
 70
     0
 71
     0
 10
0.0
 20
0.0
 30
0.0
  3
block 3
  1

  0
INSERT
  5
4E
330
49
100
AcDbEntity
  8
Layer 6
100
AcDbBlockReference
  2
block 4
 10
0.0
 20
0.0
 30
0.0
  0
INSERT
  5
53
330
49
100
AcDbEntity
  8
Layer 6
100
AcDbBlockReference
  2
block 5
 10
0.0
 20
0.0
 30
0.0
  0
INSERT
  5
58
330
49
100
AcDbEntity
  8
Layer 6
100
AcDbBlockReference
  2
block 6
 10
0.0
 20
0.0
 30
0.0
  0
INSERT
  5
5D
330
49
100
AcDbEntity
  8
Layer 6
100
AcDbBlockReference
  2
block 7
 10
0.0
 20
0.0
 30
0.0
  0
ENDBLK
  5
4C
330
49
100
AcDbEntity
  8
0
100
AcDbBlockEnd
  0
BLOCK
  5
4F
330
4D
100
AcDbEntity
  8
0
100
AcDbBlockBegin
  2
block 4
 70
     0
 71
     0
 10
0.0
 20
0.0
 30
0.0
  3
block 4
  1

  0
SPLINE
  5
51
330
4D
100
AcDbEntity
  8
Layer 6
 62
   179
420
  2235935
370
    35
100
AcDbSpline
210
0.0
220
0.0
230
1.0
 70
    11
 71
     3
 72
    17
 73
    13
 74
     0
 42
0.0000000001
 43
0.0000000001
 40
0.0
 40
0.0
 40
0.0
 40
0.0
 40
1.0
 40
1.0
 40
1.0
 40
2.0
 40
2.0
 40
2.0
 40
3.0
 40
3.0
 40
3.0
 40
4.0
 40
4.0
 40
4.0
 40
4.0
 10
-475.1792331676735
 20
157.4692173404644
 30
0.0
 10
-475.1792331676735
 20
150.8973488573767
 30
0.0
 10
-480.5070768503613
 20
145.5691606649132
 30
0.0
 10
-487.0792898432248
 20
145.5691606649132
 30
0.0
 10
-493.6515028360883
 20
145.5691606649132
 30
0.0
 10
-498.979346518776
 20
150.8973488573767
 30
0.0
 10
-498.979346518776
 20
157.4692173404644
 30
0.0
 10
-498.979346518776
 20
164.0417748431038
 30
0.0
 10
-493.6515028360883
 20
169.3692740160157
 30
0.0
 10
-487.0792898432248
 20
169.3692740160157
 30
0.0
 10
-480.5070768503613
 20
169.3692740160157
 30
0.0
 10
-475.1792331676735
 20
164.0417748431038
 30
0.0
 10
-475.1792331676735
 20
157.4692173404644
 30
0.0
  0
ENDBLK
  5
50
330
4D
100
AcDbEntity
  8
0
100
AcDbBlockEnd
  0
BLOCK
  5
54
330
52
100
AcDbEntity
  8
0
100
AcDbBlockBegin
  2
block 5
 70
     0
 71
     0
 10
0.0
 20
0.0
 30
0.0
  3
block 5
  1

  0
SPLINE
  5
56
330
52
100
AcDbEntity
  8
Layer 6
 62
   179
420
  2235935
370
    35
100
AcDbSpline
210
0.0
220
0.0
230
1.0
 70
    11
 71
     3
 72
    17
 73
    13
 74
     0
 42
0.0000000001
 43
0.0000000001
 40
0.0
 40
0.0
 40
0.0
 40
0.0
 40
1.0
 40
1.0
 40
1.0
 40
2.0
 40
2.0
 40
2.0
 40
3.0
 40
3.0
 40
3.0
 40
4.0
 40
4.0
 40
4.0
 40
4.0
 10
-414.1505321695975
 20
157.5388083151753
 30
0.0
 10
-414.1505321695975
 20
150.9665953223118
 30
0.0
 10
-419.4783758522852
 20
145.638751639624
 30
0.0
 10
-426.0505888451488
 20
145.638751639624
 30
0.0
 10
-432.6228018380123
 20
145.638751639624
 30
0.0
 10
-437.9506455207
 20
150.9665953223118
 30
0.0
 10
-437.9506455207
 20
157.5388083151753
 30
0.0
 10
-437.9506455207
 20
164.1110213080388
 30
0.0
 10
-432.6228018380123
 20
169.4388649907265
 30
0.0
 10
-426.0505888451488
 20
169.4388649907265
 30
0.0
 10
-419.4783758522852
 20
169.4388649907265
 30
0.0
 10
-414.1505321695975
 20
164.1110213080388
 30
0.0
 10
-414.1505321695975
 20
157.5388083151753
 30
0.0
  0
ENDBLK
  5
55
330
52
100
AcDbEntity
  8
0
100
AcDbBlockEnd
  0
BLOCK
  5
59
330
57
100
AcDbEntity
  8
0
100
AcDbBlockBegin
  2
block 6
 70
     0
 71
     0
 10
0.0
 20
0.0
 30
0.0
  3
block 6
  1

  0
SPLINE
  5
5B
330
57
100
AcDbEntity
  8
Layer 6
 62
   179
420
  2235935
370
    35
100
AcDbSpline
210
0.0
220
0.0
230
1.0
 70
    11
 71
     3
 72
    17
 73
    13
 74
     0
 42
0.0000000001
 43
0.0000000001
 40
0.0
 40
0.0
 40
0.0
 40
0.0
 40
1.0
 40
1.0
 40
1.0
 40
2.0
 40
2.0
 40
2.0
 40
3.0
 40
3.0
 40
3.0
 40
4.0
 40
4.0
 40
4.0
 40
4.0
 10
-444.6942521270221
 20
157.5388083151753
 30
0.0
 10
-444.6942521270221
 20
150.9665953223118
 30
0.0
 10
-450.0220958097099
 20
145.638751639624
 30
0.0
 10
-456.5943088025734
 20
145.638751639624
 30
0.0
 10
-463.1665217954369
 20
145.638751639624
 30
0.0
 10
-468.4943654781247
 20
150.9665953223118
 30
0.0
 10
-468.4943654781247
 20
157.5388083151753
 30
0.0
 10
-468.4943654781247
 20
164.1110213080388
 30
0.0
 10
-463.1665217954369
 20
169.4388649907265
 30
0.0
 10
-456.5943088025734
 20
169.4388649907265
 30
0.0
 10
-450.0220958097099
 20
169.4388649907265
 30
0.0
 10
-444.6942521270221
 20
164.1110213080388
 30
0.0
 10
-444.6942521270221
 20
157.5388083151753
 30
0.0
  0
ENDBLK
  5
5A
330
57
100
AcDbEntity
  8
0
100
AcDbBlockEnd
  0
BLOCK
  5
5E
330
5C
100
AcDbEntity
  8
0
100
AcDbBlockBegin
  2
block 7
 70
     0
 71
     0
 10
0.0
 20
0.0
 30
0.0
  3
block 7
  1

  0
SPLINE
  5
60
330
5C
100
AcDbEntity
  8
Layer 6
 62
   179
420
  2235935
370
    35
100
AcDbSpline
210
0.0
220
0.0
230
1.0
 70
    11
 71
     3
 72
    17
 73
    13
 74
     0
 42
0.0000000001
 43
0.0000000001
 40
0.0
 40
0.0
 40
0.0
 40
0.0
 40
1.0
 40
1.0
 40
1.0
 40
2.0
 40
2.0
 40
2.0
 40
3.0
 40
3.0
 40
3.0
 40
4.0
 40
4.0
 40
4.0
 40
4.0
 10
-383.6603834823092
 20
157.5388083151753
 30
0.0
 10
-383.6603834823092
 20
150.9665953223118
 30
0.0
 10
-388.9882271649969
 20
145.638751639624
 30
0.0
 10
-395.5604401578605
 20
145.638751639624
 30
0.0
 10
-402.132653150724
 20
145.638751639624
 30
0.0
 10
-407.4604968334117
 20
150.9665953223118
 30
0.0
 10
-407.4604968334117
 20
157.5388083151753
 30
0.0
 10
-407.4604968334117
 20
164.1110213080388
 30
0.0
 10
-402.132653150724
 20
169.4388649907265
 30
0.0
 10
-395.5604401578605
 20
169.4388649907265
 30
0.0
 10
-388.9882271649969
 20
169.4388649907265
 30
0.0
 10
-383.6603834823092
 20
164.1110213080388
 30
0.0
 10
-383.6603834823092
 20
157.5388083151753
 30
0.0
  0
ENDBLK
  5
5F
330
5C
100
AcDbEntity
  8
0
100
AcDbBlockEnd
  0
BLOCK
  5
63
330
61
100
AcDbEntity
  8
0
100
AcDbBlockBegin
  2
block 8
 70
     0
 71
     0
 10
0.0
 20
0.0
 30
0.0
  3
block 8
  1

  0
INSERT
  5
66
330
61
100
AcDbEntity
  8
Layer 6
100
AcDbBlockReference
  2
block 9
 10
0.0
 20
0.0
 30
0.0
  0
INSERT
  5
6B
330
61
100
AcDbEntity
  8
Layer 6
100
AcDbBlockReference
  2
block 10
 10
0.0
 20
0.0
 30
0.0
  0
INSERT
  5
70
330
61
100
AcDbEntity
  8
Layer 6
100
AcDbBlockReference
  2
block 11
 10
0.0
 20
0.0
 30
0.0
  0
INSERT
  5
75
330
61
100
AcDbEntity
  8
Layer 6
100
AcDbBlockReference
  2
block 12
 10
0.0
 20
0.0
 30
0.0
  0
ENDBLK
  5
64
330
61
100
AcDbEntity
  8
0
100
AcDbBlockEnd
  0
BLOCK
  5
67
330
65
100
AcDbEntity
  8
0
100
AcDbBlockBegin
  2
block 9
 70
     0
 71
     0
 10
0.0
 20
0.0
 30
0.0
  3
block 9
  1

  0
SPLINE
  5
69
330
65
100
AcDbEntity
  8
Layer 6
 62
   179
420
  2235935
370
    35
100
AcDbSpline
210
0.0
220
0.0
230
1.0
 70
    11
 71
     3
 72
    17
 73
    13
 74
     0
 42
0.0000000001
 43
0.0000000001
 40
0.0
 40
0.0
 40
0.0
 40
0.0
 40
1.0
 40
1.0
 40
1.0
 40
2.0
 40
2.0
 40
2.0
 40
3.0
 40
3.0
 40
3.0
 40
4.0
 40
4.0
 40
4.0
 40
4.0
 10
-186.9230806221579
 20
158.2746811962759
 30
0.0
 10
-186.9230806221579
 20
151.7028127131882
 30
0.0
 10
-181.5952369394701
 20
146.3746245207246
 30
0.0
 10
-175.0230239466066
 20
146.3746245207246
 30
0.0
 10
-168.4508109537431
 20
146.3746245207246
 30
0.0
 10
-163.1229672710554
 20
151.7028127131882
 30
0.0
 10
-163.1229672710554
 20
158.2746811962759
 30
0.0
 10
-163.1229672710554
 20
164.8472386989152
 30
0.0
 10
-168.4508109537431
 20
170.1747378718271
 30
0.0
 10
-175.0230239466066
 20
170.1747378718271
 30
0.0
 10
-181.5952369394701
 20
170.1747378718271
 30
0.0
 10
-186.9230806221579
 20
164.8472386989152
 30
0.0
 10
-186.9230806221579
 20
158.2746811962759
 30
0.0
  0
ENDBLK
  5
68
330
65
100
AcDbEntity
  8
0
100
AcDbBlockEnd
  0
BLOCK
  5
6C
330
6A
100
AcDbEntity
  8
0
100
AcDbBlockBegin
  2
block 10
 70
     0
 71
     0
 10
0.0
 20
0.0
 30
0.0
  3
block 10
  1

  0
SPLINE
  5
6E
330
6A
100
AcDbEntity
  8
Layer 6
 62
   179
420
  2235935
370
    35
100
AcDbSpline
210
0.0
220
0.0
230
1.0
 70
    11
 71
     3
 72
    17
 73
    13
 74
     0
 42
0.0000000001
 43
0.0000000001
 40
0.0
 40
0.0
 40
0.0
 40
0.0
 40
1.0
 40
1.0
 40
1.0
 40
2.0
 40
2.0
 40
2.0
 40
3.0
 40
3.0
 40
3.0
 40
4.0
 40
4.0
 40
4.0
 40
4.0
 10
-247.9519538751218
 20
158.3442721709867
 30
0.0
 10
-247.9519538751218
 20
151.7720591781232
 30
0.0
 10
-242.6237656826583
 20
146.4442154954355
 30
0.0
 10
-236.0518971995706
 20
146.4442154954355
 30
0.0
 10
-229.4793396969312
 20
146.4442154954355
 30
0.0
 10
-224.1518405240193
 20
151.7720591781232
 30
0.0
 10
-224.1518405240193
 20
158.3442721709867
 30
0.0
 10
-224.1518405240193
 20
164.9164851638502
 30
0.0
 10
-229.4793396969312
 20
170.244328846538
 30
0.0
 10
-236.0518971995706
 20
170.244328846538
 30
0.0
 10
-242.6237656826583
 20
170.244328846538
 30
0.0
 10
-247.9519538751218
 20
164.9164851638502
 30
0.0
 10
-247.9519538751218
 20
158.3442721709867
 30
0.0
  0
ENDBLK
  5
6D
330
6A
100
AcDbEntity
  8
0
100
AcDbBlockEnd
  0
BLOCK
  5
71
330
6F
100
AcDbEntity
  8
0
100
AcDbBlockBegin
  2
block 11
 70
     0
 71
     0
 10
0.0
 20
0.0
 30
0.0
  3
block 11
  1

  0
SPLINE
  5
73
330
6F
100
AcDbEntity
  8
Layer 6
 62
   179
420
  2235935
370
    35
100
AcDbSpline
210
0.0
220
0.0
230
1.0
 70
    11
 71
     3
 72
    17
 73
    13
 74
     0
 42
0.0000000001
 43
0.0000000001
 40
0.0
 40
0.0
 40
0.0
 40
0.0
 40
1.0
 40
1.0
 40
1.0
 40
2.0
 40
2.0
 40
2.0
 40
3.0
 40
3.0
 40
3.0
 40
4.0
 40
4.0
 40
4.0
 40
4.0
 10
-217.4080616628093
 20
158.3442721709867
 30
0.0
 10
-217.4080616628093
 20
151.7720591781232
 30
0.0
 10
-212.0802179801215
 20
146.4442154954355
 30
0.0
 10
-205.508004987258
 20
146.4442154954355
 30
0.0
 10
-198.9357919943945
 20
146.4442154954355
 30
0.0
 10
-193.6079483117068
 20
151.7720591781232
 30
0.0
 10
-193.6079483117068
 20
158.3442721709867
 30
0.0
 10
-193.6079483117068
 20
164.9164851638502
 30
0.0
 10
-198.9357919943945
 20
170.244328846538
 30
0.0
 10
-205.508004987258
 20
170.244328846538
 30
0.0
 10
-212.0802179801215
 20
170.244328846538
 30
0.0
 10
-217.4080616628093
 20
164.9164851638502
 30
0.0
 10
-217.4080616628093
 20
158.3442721709867
 30
0.0
  0
ENDBLK
  5
72
330
6F
100
AcDbEntity
  8
0
100
AcDbBlockEnd
  0
BLOCK
  5
76
330
74
100
AcDbEntity
  8
0
100
AcDbBlockBegin
  2
block 12
 70
     0
 71
     0
 10
0.0
 20
0.0
 30
0.0
  3
block 12
  1

  0
SPLINE
  5
78
330
74
100
AcDbEntity
  8
Layer 6
 62
   179
420
  2235935
370
    35
100
AcDbSpline
210
0.0
220
0.0
230
1.0
 70
    11
 71
     3
 72
    17
 73
    13
 74
     0
 42
0.0000000001
 43
0.0000000001
 40
0.0
 40
0.0
 40
0.0
 40
0.0
 40
1.0
 40
1.0
 40
1.0
 40
2.0
 40
2.0
 40
2.0
 40
3.0
 40
3.0
 40
3.0
 40
4.0
 40
4.0
 40
4.0
 40
4.0
 10
-278.4417580526344
 20
158.3442721709867
 30
0.0
 10
-278.4417580526344
 20
151.7720591781232
 30
0.0
 10
-273.1142588797224
 20
146.4442154954355
 30
0.0
 10
-266.5417013770831
 20
146.4442154954355
 30
0.0
 10
-259.9698328939954
 20
146.4442154954355
 30
0.0
 10
-254.6416447015318
 20
151.7720591781232
 30
0.0
 10
-254.6416447015318
 20
158.3442721709867
 30
0.0
 10
-254.6416447015318
 20
164.9164851638502
 30
0.0
 10
-259.9698328939954
 20
170.244328846538
 30
0.0
 10
-266.5417013770831
 20
170.244328846538
 30
0.0
 10
-273.1142588797224
 20
170.244328846538
 30
0.0
 10
-278.4417580526344
 20
164.9164851638502
 30
0.0
 10
-278.4417580526344
 20
158.3442721709867
 30
0.0
  0
ENDBLK
  5
77
330
74
100
AcDbEntity
  8
0
100
AcDbBlockEnd
  0
ENDSEC
  0
SECTION
  2
ENTITIES
  0
INSERT
  5
3D
330
1F
100
AcDbEntity
  8
background
100
AcDbBlockReference
  2
block 2
 10
0.0
 20
0.0
 30
0.0
  0
POLYLINE
  5
42
330
1F
100
AcDbEntity
  8
Layer 6
 62
   179
420
  2235935
370
    35
100
AcDb2dPolyline
 66
     1
 10
0.0
 20
0.0
 30
0.0
  0
VERTEX
  5
43
330
42
100
AcDbEntity
  8
Layer 6
 62
   179
420
  2235935
370
    35
100
AcDbVertex
100
AcDb2dVertex
 10
-150.9945006141513
 20
137.3157399661644
 30
0.0
  0
VERTEX
  5
44
330
42
100
AcDbEntity
  8
Layer 6
 62
   179
420
  2235935
370
    35
100
AcDbVertex
100
AcDb2dVertex
 10
-510.9946417143311
 20
137.3157399661644
 30
0.0
  0
VERTEX
  5
45
330
42
100
AcDbEntity
  8
Layer 6
 62
   179
420
  2235935
370
    35
100
AcDbVertex
100
AcDb2dVertex
 10
-510.9946417143311
 20
389.6407286803549
 30
0.0
  0
VERTEX
  5
46
330
42
100
AcDbEntity
  8
Layer 6
 62
   179
420
  2235935
370
    35
100
AcDbVertex
100
AcDb2dVertex
 10
-150.9945006141513
 20
389.6407286803549
 30
0.0
  0
VERTEX
  5
47
330
42
100
AcDbEntity
  8
Layer 6
 62
   179
420
  2235935
370
    35
100
AcDbVertex
100
AcDb2dVertex
 10
-150.9945006141513
 20
137.3157399661644
 30
0.0
  0
SEQEND
  5
48
330
42
100
AcDbEntity
  8
Layer 6
370
    35
  0
INSERT
  5
4A
330
1F
100
AcDbEntity
  8
Layer 6
100
AcDbBlockReference
  2
block 3
 10
0.0
 20
0.0
 30
0.0
  0
INSERT
  5
62
330
1F
100
AcDbEntity
  8
Layer 6
100
AcDbBlockReference
  2
block 8
 10
0.0
 20
0.0
 30
0.0
  0
POLYLINE
  5
7A
330
1F
100
AcDbEntity
  8
Layer 3
 62
     7
420
 16777215
370
    40
100
AcDb2dPolyline
 66
     1
 10
0.0
 20
0.0
 30
0.0
  0
VERTEX
  5
7B
330
7A
100
AcDbEntity
  8
Layer 3
 62
     7
420
 16777215
370
    40
100
AcDbVertex
100
AcDb2dVertex
 10
-308.508848735245
 20
77.87195619163862
 30
0.0
  0
VERTEX
  5
7C
330
7A
100
AcDbEntity
  8
Layer 3
 62
     7
420
 16777215
370
    40
100
AcDbVertex
100
AcDb2dVertex
 10
-308.508848735245
 20
112.5323957149396
 30
0.0
  0
SEQEND
  5
7D
330
7A
100
AcDbEntity
  8
Layer 3
370
    40
  0
POLYLINE
  5
7E
330
1F
100
AcDbEntity
  8
Layer 3
 62
     7
420
 16777215
370
    40
100
AcDb2dPolyline
 66
     1
 10
0.0
 20
0.0
 30
0.0
  0
VERTEX
  5
7F
330
7E
100
AcDbEntity
  8
Layer 3
 62
     7
420
 16777215
370
    40
100
AcDbVertex
100
AcDb2dVertex
 10
-353.5090601595164
 20
77.87195619163862
 30
0.0
  0
VERTEX
  5
80
330
7E
100
AcDbEntity
  8
Layer 3
 62
     7
420
 16777215
370
    40
100
AcDbVertex
100
AcDb2dVertex
 10
-353.5090601595164
 20
112.5323957149396
 30
0.0
  0
SEQEND
  5
81
330
7E
100
AcDbEntity
  8
Layer 3
370
    40
  0
POLYLINE
  5
82
330
1F
100
AcDbEntity
  8
Layer 3
 62
     7
420
 16777215
370
    40
100
AcDb2dPolyline
 66
     1
 10
0.0
 20
0.0
 30
0.0
  0
VERTEX
  5
83
330
82
100
AcDbEntity
  8
Layer 3
 62
     7
420
 16777215
370
    40
100
AcDbVertex
100
AcDb2dVertex
 10
-216.0093519730769
 20
75.09382935961831
 30
0.0
  0
VERTEX
  5
84
330
82
100
AcDbEntity
  8
Layer 3
 62
     7
420
 16777215
370
    40
100
AcDbVertex
100
AcDb2dVertex
 10
-216.0093519730769
 20
112.5323957149396
 30
0.0
  0
SEQEND
  5
85
330
82
100
AcDbEntity
  8
Layer 3
370
    40
  0
POLYLINE
  5
86
330
1F
100
AcDbEntity
  8
Layer 3
 62
     7
420
 16777215
370
    40
100
AcDb2dPolyline
 66
     1
 10
0.0
 20
0.0
 30
0.0
  0
VERTEX
  5
87
330
86
100
AcDbEntity
  8
Layer 3
 62
     7
420
 16777215
370
    40
100
AcDbVertex
100
AcDb2dVertex
 10
-446.0092459412361
 20
76.24104691301956
 30
0.0
  0
VERTEX
  5
88
330
86
100
AcDbEntity
  8
Layer 3
 62
     7
420
 16777215
370
    40
100
AcDbVertex
100
AcDb2dVertex
 10
-446.0092459412361
 20
112.0032286993167
 30
0.0
  0
SEQEND
  5
89
330
86
100
AcDbEntity
  8
Layer 3
370
    40
  0
POLYLINE
  5
8A
330
1F
100
AcDbEntity
  8
Layer 3
 62
     7
420
 16777215
370
    40
100
AcDb2dPolyline
 66
     1
 10
0.0
 20
0.0
 30
0.0
  0
VERTEX
  5
8B
330
8A
100
AcDbEntity
  8
Layer 3
 62
     7
420
 16777215
370
    40
100
AcDbVertex
100
AcDb2dVertex
 10
-536.8327026441559
 20
228.350725671423
 30
0.0
  0
VERTEX
  5
8C
330
8A
100
AcDbEntity
  8
Layer 3
 62
     7
420
 16777215
370
    40
100
AcDbVertex
100
AcDb2dVertex
 10
-584.530770122687
 20
228.350725671423
 30
0.0
  0
SEQEND
  5
8D
330
8A
100
AcDbEntity
  8
Layer 3
370
    40
  0
POLYLINE
  5
8E
330
1F
100
AcDbEntity
  8
Layer 3
 62
     7
420
 16777215
370
    40
100
AcDb2dPolyline
 66
     1
 10
0.0
 20
0.0
 30
0.0
  0
VERTEX
  5
8F
330
8E
100
AcDbEntity
  8
Layer 3
 62
     7
420
 16777215
370
    40
100
AcDbVertex
100
AcDb2dVertex
 10
-308.508848735245
 20
177.7281147061582
 30
0.0
  0
VERTEX
  5
90
330
8E
100
AcDbEntity
  8
Layer 3
 62
     7
420
 16777215
370
    40
100
AcDbVertex
100
AcDb2dVertex
 10
-308.508848735245
 20
278.5785284336254
 30
0.0
  0
SEQEND
  5
91
330
8E
100
AcDbEntity
  8
Layer 3
370
    40
  0
POLYLINE
  5
92
330
1F
100
AcDbEntity
  8
Layer 3
 62
     7
420
 16777215
370
    40
100
AcDb2dPolyline
 66
     1
 10
0.0
 20
0.0
 30
0.0
  0
VERTEX
  5
93
330
92
100
AcDbEntity
  8
Layer 3
 62
     7
420
 16777215
370
    40
100
AcDbVertex
100
AcDb2dVertex
 10
-353.5090601595164
 20
177.7281147061582
 30
0.0
  0
VERTEX
  5
94
330
92
100
AcDbEntity
  8
Layer 3
 62
     7
420
 16777215
370
    40
100
AcDbVertex
100
AcDb2dVertex
 10
-353.5090601595164
 20
278.5785284336254
 30
0.0
  0
SEQEND
  5
95
330
92
100
AcDbEntity
  8
Layer 3
370
    40
  0
POLYLINE
  5
96
330
1F
100
AcDbEntity
  8
Layer 3
 62
     7
420
 16777215
370
    40
100
AcDb2dPolyline
 66
     1
 10
0.0
 20
0.0
 30
0.0
  0
VERTEX
  5
97
330
96
100
AcDbEntity
  8
Layer 3
 62
     7
420
 16777215
370
    40
100
AcDbVertex
100
AcDb2dVertex
 10
-511.0092833798025
 20
122.6506478300731
 30
0.0
  0
VERTEX
  5
98
330
96
100
AcDbEntity
  8
Layer 3
 62
     7
420
 16777215
370
    40
100
AcDbVertex
100
AcDb2dVertex
 10
-511.0092833798025
 20
395.5857616263814
 30
0.0
  0
SEQEND
  5
99
330
96
100
AcDbEntity
  8
Layer 3
370
    40
  0
POLYLINE
  5
9A
330
1F
100
AcDbEntity
  8
Layer 3
 62
     7
420
 16777215
370
    40
100
AcDb2dPolyline
 66
     1
 10
0.0
 20
0.0
 30
0.0
  0
VERTEX
  5
9B
330
9A
100
AcDbEntity
  8
Layer 3
 62
     7
420
 16777215
370
    40
100
AcDbVertex
100
AcDb2dVertex
 10
-498.009206990134
 20
122.6506478300731
 30
0.0
  0
VERTEX
  5
9C
330
9A
100
AcDbEntity
  8
Layer 3
 62
     7
420
 16777215
370
    40
100
AcDbVertex
100
AcDb2dVertex
 10
-498.009206990134
 20
395.5857616263814
 30
0.0
  0
SEQEND
  5
9D
330
9A
100
AcDbEntity
  8
Layer 3
370
    40
  0
POLYLINE
  5
9E
330
1F
100
AcDbEntity
  8
Layer 3
 62
     7
420
 16777215
370
    40
100
AcDb2dPolyline
 66
     1
 10
0.0
 20
0.0
 30
0.0
  0
VERTEX
  5
9F
330
9E
100
AcDbEntity
  8
Layer 3
 62
     7
420
 16777215
370
    40
100
AcDbVertex
100
AcDb2dVertex
 10
-151.0093145345105
 20
122.6506478300731
 30
0.0
  0
VERTEX
  5
A0
330
9E
100
AcDbEntity
  8
Layer 3
 62
     7
420
 16777215
370
    40
100
AcDbVertex
100
AcDb2dVertex
 10
-151.0093145345105
 20
395.5857616263814
 30
0.0
  0
SEQEND
  5
A1
330
9E
100
AcDbEntity
  8
Layer 3
370
    40
  0
POLYLINE
  5
A2
330
1F
100
AcDbEntity
  8
Layer 3
 62
     7
420
 16777215
370
    40
100
AcDb2dPolyline
 66
     1
 10
0.0
 20
0.0
 30
0.0
  0
VERTEX
  5
A3
330
A2
100
AcDbEntity
  8
Layer 3
 62
     7
420
 16777215
370
    40
100
AcDbVertex
100
AcDb2dVertex
 10
-164.0090464144031
 20
122.6506478300731
 30
0.0
  0
VERTEX
  5
A4
330
A2
100
AcDbEntity
  8
Layer 3
 62
     7
420
 16777215
370
    40
100
AcDbVertex
100
AcDb2dVertex
 10
-164.0090464144031
 20
395.5857616263814
 30
0.0
  0
SEQEND
  5
A5
330
A2
100
AcDbEntity
  8
Layer 3
370
    40
  0
POLYLINE
  5
A6
330
1F
100
AcDbEntity
  8
Layer 3
 62
     7
420
 16777215
370
    40
100
AcDb2dPolyline
 66
     1
 10
0.0
 20
0.0
 30
0.0
  0
VERTEX
  5
A7
330
A6
100
AcDbEntity
  8
Layer 3
 62
     7
420
 16777215
370
    40
100
AcDbVertex
100
AcDb2dVertex
 10
-216.0093519730769
 20
167.1006771423979
 30
0.0
  0
VERTEX
  5
A8
330
A6
100
AcDbEntity
  8
Layer 3
 62
     7
420
 16777215
370
    40
100
AcDbVertex
100
AcDb2dVertex
 10
-216.0093519730769
 20
288.8090907356685
 30
0.0
  0
SEQEND
  5
A9
330
A6
100
AcDbEntity
  8
Layer 3
370
    40
  0
POLYLINE
  5
AA
330
1F
100
AcDbEntity
  8
Layer 3
 62
     7
420
 16777215
370
    40
100
AcDb2dPolyline
 66
     1
 10
0.0
 20
0.0
 30
0.0
  0
VERTEX
  5
AB
330
AA
100
AcDbEntity
  8
Layer 3
 62
     7
420
 16777215
370
    40
100
AcDbVertex
100
AcDb2dVertex
 10
-231.5088467861465
 20
137.1731129189847
 30
0.0
  0
VERTEX
  5
AC
330
AA
100
AcDbEntity
  8
Layer 3
 62
     7
420
 16777215
370
    40
100
AcDbVertex
100
AcDb2dVertex
 10
-231.5088467861465
 20
170.7304321401864
 30
0.0
  0
SEQEND
  5
AD
330
AA
100
AcDbEntity
  8
Layer 3
370
    40
  0
POLYLINE
  5
AE
330
1F
100
AcDbEntity
  8
Layer 3
 62
     7
420
 16777215
370
    40
100
AcDb2dPolyline
 66
     1
 10
0.0
 20
0.0
 30
0.0
  0
VERTEX
  5
AF
330
AE
100
AcDbEntity
  8
Layer 3
 62
     7
420
 16777215
370
    40
100
AcDbVertex
100
AcDb2dVertex
 10
-256.5092321961229
 20
137.1731129189847
 30
0.0
  0
VERTEX
  5
B0
330
AE
100
AcDbEntity
  8
Layer 3
 62
     7
420
 16777215
370
    40
100
AcDbVertex
100
AcDb2dVertex
 10
-256.5092321961229
 20
170.7304321401864
 30
0.0
  0
SEQEND
  5
B1
330
AE
100
AcDbEntity
  8
Layer 3
370
    40
  0
POLYLINE
  5
B2
330
1F
100
AcDbEntity
  8
Layer 3
 62
     7
420
 16777215
370
    40
100
AcDb2dPolyline
 66
     1
 10
0.0
 20
0.0
 30
0.0
  0
VERTEX
  5
B3
330
B2
100
AcDbEntity
  8
Layer 3
 62
     7
420
 16777215
370
    40
100
AcDbVertex
100
AcDb2dVertex
 10
-206.5091503957217
 20
137.1731129189847
 30
0.0
  0
VERTEX
  5
B4
330
B2
100
AcDbEntity
  8
Layer 3
 62
     7
420
 16777215
370
    40
100
AcDbVertex
100
AcDb2dVertex
 10
-206.5091503957217
 20
170.7304321401864
 30
0.0
  0
SEQEND
  5
B5
330
B2
100
AcDbEntity
  8
Layer 3
370
    40
  0
POLYLINE
  5
B6
330
1F
100
AcDbEntity
  8
Layer 3
 62
     7
420
 16777215
370
    40
100
AcDb2dPolyline
 66
     1
 10
0.0
 20
0.0
 30
0.0
  0
VERTEX
  5
B7
330
B6
100
AcDbEntity
  8
Layer 3
 62
     7
420
 16777215
370
    40
100
AcDbVertex
100
AcDb2dVertex
 10
-181.5094540052969
 20
137.1731129189847
 30
0.0
  0
VERTEX
  5
B8
330
B6
100
AcDbEntity
  8
Layer 3
 62
     7
420
 16777215
370
    40
100
AcDbVertex
100
AcDb2dVertex
 10
-181.5094540052969
 20
170.7304321401864
 30
0.0
  0
SEQEND
  5
B9
330
B6
100
AcDbEntity
  8
Layer 3
370
    40
  0
POLYLINE
  5
BA
330
1F
100
AcDbEntity
  8
Layer 3
 62
     7
420
 16777215
370
    40
100
AcDb2dPolyline
 66
     1
 10
0.0
 20
0.0
 30
0.0
  0
VERTEX
  5
BB
330
BA
100
AcDbEntity
  8
Layer 3
 62
     7
420
 16777215
370
    40
100
AcDbVertex
100
AcDb2dVertex
 10
-430.5090621086149
 20
137.1731129189847
 30
0.0
  0
VERTEX
  5
BC
330
BA
100
AcDbEntity
  8
Layer 3
 62
     7
420
 16777215
370
    40
100
AcDbVertex
100
AcDb2dVertex
 10
-430.5090621086149
 20
170.7304321401864
 30
0.0
  0
SEQEND
  5
BD
330
BA
100
AcDbEntity
  8
Layer 3
370
    40
  0
POLYLINE
  5
BE
330
1F
100
AcDbEntity
  8
Layer 3
 62
     7
420
 16777215
370
    40
100
AcDb2dPolyline
 66
     1
 10
0.0
 20
0.0
 30
0.0
  0
VERTEX
  5
BF
330
BE
100
AcDbEntity
  8
Layer 3
 62
     7
420
 16777215
370
    40
100
AcDbVertex
100
AcDb2dVertex
 10
-405.5090212084143
 20
137.1731129189847
 30
0.0
  0
VERTEX
  5
C0
330
BE
100
AcDbEntity
  8
Layer 3
 62
     7
420
 16777215
370
    40
100
AcDbVertex
100
AcDb2dVertex
 10
-405.5090212084143
 20
170.7304321401864
 30
0.0
  0
SEQEND
  5
C1
330
BE
100
AcDbEntity
  8
Layer 3
370
    40
  0
POLYLINE
  5
C2
330
1F
100
AcDbEntity
  8
Layer 3
 62
     7
420
 16777215
370
    40
100
AcDb2dPolyline
 66
     1
 10
0.0
 20
0.0
 30
0.0
  0
VERTEX
  5
C3
330
C2
100
AcDbEntity
  8
Layer 3
 62
     7
420
 16777215
370
    40
100
AcDbVertex
100
AcDb2dVertex
 10
-455.5087584990397
 20
137.1731129189847
 30
0.0
  0
VERTEX
  5
C4
330
C2
100
AcDbEntity
  8
Layer 3
 62
     7
420
 16777215
370
    40
100
AcDbVertex
100
AcDb2dVertex
 10
-455.5087584990397
 20
170.7304321401864
 30
0.0
  0
SEQEND
  5
C5
330
C2
100
AcDbEntity
  8
Layer 3
370
    40
  0
POLYLINE
  5
C6
330
1F
100
AcDbEntity
  8
Layer 3
 62
     7
420
 16777215
370
    40
100
AcDb2dPolyline
 66
     1
 10
0.0
 20
0.0
 30
0.0
  0
VERTEX
  5
C7
330
C6
100
AcDbEntity
  8
Layer 3
 62
     7
420
 16777215
370
    40
100
AcDbVertex
100
AcDb2dVertex
 10
-480.5087993992403
 20
137.1731129189847
 30
0.0
  0
VERTEX
  5
C8
330
C6
100
AcDbEntity
  8
Layer 3
 62
     7
420
 16777215
370
    40
100
AcDbVertex
100
AcDb2dVertex
 10
-480.5087993992403
 20
170.7304321401864
 30
0.0
  0
SEQEND
  5
C9
330
C6
100
AcDbEntity
  8
Layer 3
370
    40
  0
POLYLINE
  5
CA
330
1F
100
AcDbEntity
  8
Layer 3
 62
     7
420
 16777215
370
    40
100
AcDb2dPolyline
 66
     1
 10
0.0
 20
0.0
 30
0.0
  0
VERTEX
  5
CB
330
CA
100
AcDbEntity
  8
Layer 3
 62
     7
420
 16777215
370
    40
100
AcDbVertex
100
AcDb2dVertex
 10
-446.0092459412361
 20
168.2478946957992
 30
0.0
  0
VERTEX
  5
CC
330
CA
100
AcDbEntity
  8
Layer 3
 62
     7
420
 16777215
370
    40
100
AcDbVertex
100
AcDb2dVertex
 10
-446.0092459412361
 20
288.2799237200455
 30
0.0
  0
SEQEND
  5
CD
330
CA
100
AcDbEntity
  8
Layer 3
370
    40
  0
POLYLINE
  5
CE
330
1F
100
AcDbEntity
  8
Layer 3
 62
     7
420
 16777215
370
    40
100
AcDb2dPolyline
 66
     1
 10
0.0
 20
0.0
 30
0.0
  0
VERTEX
  5
CF
330
CE
100
AcDbEntity
  8
Layer 3
 62
     7
420
 16777215
370
    40
100
AcDbVertex
100
AcDb2dVertex
 10
-410.0090078998638
 20
311.9756506090819
 30
0.0
  0
VERTEX
  5
D0
330
CE
100
AcDbEntity
  8
Layer 3
 62
     7
420
 16777215
370
    40
100
AcDbVertex
100
AcDb2dVertex
 10
-410.0090078998638
 20
391.279906193593
 30
0.0
  0
SEQEND
  5
D1
330
CE
100
AcDbEntity
  8
Layer 3
370
    40
  0
POLYLINE
  5
D2
330
1F
100
AcDbEntity
  8
Layer 3
 62
     7
420
 16777215
370
    40
100
AcDb2dPolyline
 66
     1
 10
0.0
 20
0.0
 30
0.0
  0
VERTEX
  5
D3
330
D2
100
AcDbEntity
  8
Layer 3
 62
     7
420
 16777215
370
    40
100
AcDbVertex
100
AcDb2dVertex
 10
-431.0092903030709
 20
326.0116678945694
 30
0.0
  0
VERTEX
  5
D4
330
D2
100
AcDbEntity
  8
Layer 3
 62
     7
420
 16777215
370
    40
100
AcDbVertex
100
AcDb2dVertex
 10
-431.0092903030709
 20
366.4212865563568
 30
0.0
  0
SEQEND
  5
D5
330
D2
100
AcDbEntity
  8
Layer 3
370
    40
  0
POLYLINE
  5
D6
330
1F
100
AcDbEntity
  8
Layer 3
 62
     7
420
 16777215
370
    40
100
AcDb2dPolyline
 66
     1
 10
0.0
 20
0.0
 30
0.0
  0
VERTEX
  5
D7
330
D6
100
AcDbEntity
  8
Layer 3
 62
     7
420
 16777215
370
    40
100
AcDbVertex
100
AcDb2dVertex
 10
-389.0090700064326
 20
326.0116678945694
 30
0.0
  0
VERTEX
  5
D8
330
D6
100
AcDbEntity
  8
Layer 3
 62
     7
420
 16777215
370
    40
100
AcDbVertex
100
AcDb2dVertex
 10
-389.0090700064326
 20
366.5060359612027
 30
0.0
  0
SEQEND
  5
D9
330
D6
100
AcDbEntity
  8
Layer 3
370
    40
  0
POLYLINE
  5
DA
330
1F
100
AcDbEntity
  8
Layer 3
 62
     7
420
 16777215
370
    40
100
AcDb2dPolyline
 66
     1
 10
0.0
 20
0.0
 30
0.0
  0
VERTEX
  5
DB
330
DA
100
AcDbEntity
  8
Layer 3
 62
     7
420
 16777215
370
    40
100
AcDbVertex
100
AcDb2dVertex
 10
-396.009164140835
 20
365.0101745146957
 30
0.0
  0
VERTEX
  5
DC
330
DA
100
AcDbEntity
  8
Layer 3
 62
     7
420
 16777215
370
    40
100
AcDbVertex
100
AcDb2dVertex
 10
-396.009164140835
 20
383.8672616026748
 30
0.0
  0
SEQEND
  5
DD
330
DA
100
AcDbEntity
  8
Layer 3
370
    40
  0
POLYLINE
  5
DE
330
1F
100
AcDbEntity
  8
Layer 3
 62
     7
420
 16777215
370
    40
100
AcDb2dPolyline
 66
     1
 10
0.0
 20
0.0
 30
0.0
  0
VERTEX
  5
DF
330
DE
100
AcDbEntity
  8
Layer 3
 62
     7
420
 16777215
370
    40
100
AcDbVertex
100
AcDb2dVertex
 10
-386.0090788787995
 20
365.0101745146957
 30
0.0
  0
VERTEX
  5
E0
330
DE
100
AcDbEntity
  8
Layer 3
 62
     7
420
 16777215
370
    40
100
AcDbVertex
100
AcDb2dVertex
 10
-386.0090788787995
 20
383.8672616026748
 30
0.0
  0
SEQEND
  5
E1
330
DE
100
AcDbEntity
  8
Layer 3
370
    40
  0
POLYLINE
  5
E2
330
1F
100
AcDbEntity
  8
Layer 3
 62
     7
420
 16777215
370
    40
100
AcDb2dPolyline
 66
     1
 10
0.0
 20
0.0
 30
0.0
  0
VERTEX
  5
E3
330
E2
100
AcDbEntity
  8
Layer 3
 62
     7
420
 16777215
370
    40
100
AcDbVertex
100
AcDb2dVertex
 10
-318.5092785070562
 20
275.9922935467236
 30
0.0
  0
VERTEX
  5
E4
330
E2
100
AcDbEntity
  8
Layer 3
 62
     7
420
 16777215
370
    40
100
AcDbVertex
100
AcDb2dVertex
 10
-318.5092785070562
 20
391.279906193593
 30
0.0
  0
SEQEND
  5
E5
330
E2
100
AcDbEntity
  8
Layer 3
370
    40
  0
POLYLINE
  5
E6
330
1F
100
AcDbEntity
  8
Layer 3
 62
     7
420
 16777215
370
    40
100
AcDb2dPolyline
 66
     1
 10
0.0
 20
0.0
 30
0.0
  0
VERTEX
  5
E7
330
E6
100
AcDbEntity
  8
Layer 3
 62
     7
420
 16777215
370
    40
100
AcDbVertex
100
AcDb2dVertex
 10
-294.5093494859919
 20
275.9922935467236
 30
0.0
  0
VERTEX
  5
E8
330
E6
100
AcDbEntity
  8
Layer 3
 62
     7
420
 16777215
370
    40
100
AcDbVertex
100
AcDb2dVertex
 10
-294.5093494859919
 20
391.279906193593
 30
0.0
  0
SEQEND
  5
E9
330
E6
100
AcDbEntity
  8
Layer 3
370
    40
  0
POLYLINE
  5
EA
330
1F
100
AcDbEntity
  8
Layer 3
 62
     7
420
 16777215
370
    40
100
AcDb2dPolyline
 66
     1
 10
0.0
 20
0.0
 30
0.0
  0
VERTEX
  5
EB
330
EA
100
AcDbEntity
  8
Layer 3
 62
     7
420
 16777215
370
    40
100
AcDbVertex
100
AcDb2dVertex
 10
-343.508974897481
 20
275.9922935467236
 30
0.0
  0
VERTEX
  5
EC
330
EA
100
AcDbEntity
  8
Layer 3
 62
     7
420
 16777215
370
    40
100
AcDbVertex
100
AcDb2dVertex
 10
-343.508974897481
 20
391.279906193593
 30
0.0
  0
SEQEND
  5
ED
330
EA
100
AcDbEntity
  8
Layer 3
370
    40
  0
POLYLINE
  5
EE
330
1F
100
AcDbEntity
  8
Layer 3
 62
     7
420
 16777215
370
    40
100
AcDb2dPolyline
 66
     1
 10
0.0
 20
0.0
 30
0.0
  0
VERTEX
  5
EF
330
EE
100
AcDbEntity
  8
Layer 3
 62
     7
420
 16777215
370
    40
100
AcDbVertex
100
AcDb2dVertex
 10
-367.5092484283211
 20
275.9922935467236
 30
0.0
  0
VERTEX
  5
F0
330
EE
100
AcDbEntity
  8
Layer 3
 62
     7
420
 16777215
370
    40
100
AcDbVertex
100
AcDb2dVertex
 10
-367.5092484283211
 20
391.279906193593
 30
0.0
  0
SEQEND
  5
F1
330
EE
100
AcDbEntity
  8
Layer 3
370
    40
  0
POLYLINE
  5
F2
330
1F
100
AcDbEntity
  8
Layer 3
 62
     7
420
 16777215
370
    40
100
AcDb2dPolyline
 66
     1
 10
0.0
 20
0.0
 30
0.0
  0
VERTEX
  5
F3
330
F2
100
AcDbEntity
  8
Layer 3
 62
     7
420
 16777215
370
    40
100
AcDbVertex
100
AcDb2dVertex
 10
-267.5094293372945
 20
310.9617583389137
 30
0.0
  0
VERTEX
  5
F4
330
F2
100
AcDbEntity
  8
Layer 3
 62
     7
420
 16777215
370
    40
100
AcDbVertex
100
AcDb2dVertex
 10
-267.5094293372945
 20
391.279906193593
 30
0.0
  0
SEQEND
  5
F5
330
F2
100
AcDbEntity
  8
Layer 3
370
    40
  0
POLYLINE
  5
F6
330
1F
100
AcDbEntity
  8
Layer 3
 62
     7
420
 16777215
370
    40
100
AcDb2dPolyline
 66
     1
 10
0.0
 20
0.0
 30
0.0
  0
VERTEX
  5
F7
330
F6
100
AcDbEntity
  8
Layer 3
 62
     7
420
 16777215
370
    40
100
AcDbVertex
100
AcDb2dVertex
 10
-252.5087846795778
 20
352.0748659628769
 30
0.0
  0
VERTEX
  5
F8
330
F6
100
AcDbEntity
  8
Layer 3
 62
     7
420
 16777215
370
    40
100
AcDbVertex
100
AcDb2dVertex
 10
-252.5087846795778
 20
380.0619788741182
 30
0.0
  0
SEQEND
  5
F9
330
F6
100
AcDbEntity
  8
Layer 3
370
    40
  0
POLYLINE
  5
FA
330
1F
100
AcDbEntity
  8
Layer 3
 62
     7
420
 16777215
370
    40
100
AcDb2dPolyline
 66
     1
 10
0.0
 20
0.0
 30
0.0
  0
VERTEX
  5
FB
330
FA
100
AcDbEntity
  8
Layer 3
 62
     7
420
 16777215
370
    40
100
AcDbVertex
100
AcDb2dVertex
 10
-242.5090439273181
 20
310.9617583389137
 30
0.0
  0
VERTEX
  5
FC
330
FA
100
AcDbEntity
  8
Layer 3
 62
     7
420
 16777215
370
    40
100
AcDbVertex
100
AcDb2dVertex
 10
-242.5090439273181
 20
380.1785954332252
 30
0.0
  0
SEQEND
  5
FD
330
FA
100
AcDbEntity
  8
Layer 3
370
    40
  0
POLYLINE
  5
FE
330
1F
100
AcDbEntity
  8
Layer 3
 62
     7
420
 16777215
370
    40
100
AcDb2dPolyline
 66
     1
 10
0.0
 20
0.0
 30
0.0
  0
VERTEX
  5
FF
330
FE
100
AcDbEntity
  8
Layer 3
 62
     7
420
 16777215
370
    40
100
AcDbVertex
100
AcDb2dVertex
 10
-235.50860528314
 20
352.1327436052107
 30
0.0
  0
VERTEX
  5
100
330
FE
100
AcDbEntity
  8
Layer 3
 62
     7
420
 16777215
370
    40
100
AcDbVertex
100
AcDb2dVertex
 10
-235.50860528314
 20
380.1785954332252
 30
0.0
  0
SEQEND
  5
101
330
FE
100
AcDbEntity
  8
Layer 3
370
    40
  0
POLYLINE
  5
102
330
1F
100
AcDbEntity
  8
Layer 3
 62
     7
420
 16777215
370
    40
100
AcDb2dPolyline
 66
     1
 10
0.0
 20
0.0
 30
0.0
  0
VERTEX
  5
103
330
102
100
AcDbEntity
  8
Layer 3
 62
     7
420
 16777215
370
    40
100
AcDbVertex
100
AcDb2dVertex
 10
-219.5081932560627
 20
352.1327436052107
 30
0.0
  0
VERTEX
  5
104
330
102
100
AcDbEntity
  8
Layer 3
 62
     7
420
 16777215
370
    40
100
AcDbVertex
100
AcDb2dVertex
 10
-219.5081932560627
 20
380.1785954332252
 30
0.0
  0
SEQEND
  5
105
330
102
100
AcDbEntity
  8
Layer 3
370
    40
  0
POLYLINE
  5
106
330
1F
100
AcDbEntity
  8
Layer 3
 62
     7
420
 16777215
370
    40
100
AcDb2dPolyline
 66
     1
 10
0.0
 20
0.0
 30
0.0
  0
VERTEX
  5
107
330
106
100
AcDbEntity
  8
Layer 3
 62
     7
420
 16777215
370
    40
100
AcDbVertex
100
AcDb2dVertex
 10
-198.5082553626315
 20
352.1327436052107
 30
0.0
  0
VERTEX
  5
108
330
106
100
AcDbEntity
  8
Layer 3
 62
     7
420
 16777215
370
    40
100
AcDbVertex
100
AcDb2dVertex
 10
-198.5082553626315
 20
380.1785954332252
 30
0.0
  0
SEQEND
  5
109
330
106
100
AcDbEntity
  8
Layer 3
370
    40
  0
POLYLINE
  5
10A
330
1F
100
AcDbEntity
  8
Layer 3
 62
     7
420
 16777215
370
    40
100
AcDb2dPolyline
 66
     1
 10
0.0
 20
0.0
 30
0.0
  0
VERTEX
  5
10B
330
10A
100
AcDbEntity
  8
Layer 3
 62
     7
420
 16777215
370
    40
100
AcDbVertex
100
AcDb2dVertex
 10
-184.0085279189223
 20
352.1327436052107
 30
0.0
  0
VERTEX
  5
10C
330
10A
100
AcDbEntity
  8
Layer 3
 62
     7
420
 16777215
370
    40
100
AcDbVertex
100
AcDb2dVertex
 10
-184.0085279189223
 20
380.1785954332252
 30
0.0
  0
SEQEND
  5
10D
330
10A
100
AcDbEntity
  8
Layer 3
370
    40
  0
POLYLINE
  5
10E
330
1F
100
AcDbEntity
  8
Layer 3
 62
     7
420
 16777215
370
    40
100
AcDb2dPolyline
 66
     1
 10
0.0
 20
0.0
 30
0.0
  0
VERTEX
  5
10F
330
10E
100
AcDbEntity
  8
Layer 3
 62
     7
420
 16777215
370
    40
100
AcDbVertex
100
AcDb2dVertex
 10
-226.009781744888
 20
350.428625999235
 30
0.0
  0
VERTEX
  5
110
330
10E
100
AcDbEntity
  8
Layer 3
 62
     7
420
 16777215
370
    40
100
AcDbVertex
100
AcDb2dVertex
 10
-226.009781744888
 20
390.2215721623472
 30
0.0
  0
SEQEND
  5
111
330
10E
100
AcDbEntity
  8
Layer 3
370
    40
  0
POLYLINE
  5
112
330
1F
100
AcDbEntity
  8
Layer 3
 62
     7
420
 16777215
370
    40
100
AcDb2dPolyline
 66
     1
 10
0.0
 20
0.0
 30
0.0
  0
VERTEX
  5
113
330
112
100
AcDbEntity
  8
Layer 3
 62
     7
420
 16777215
370
    40
100
AcDbVertex
100
AcDb2dVertex
 10
-169.5088004752131
 20
285.5172998279361
 30
0.0
  0
VERTEX
  5
114
330
112
100
AcDbEntity
  8
Layer 3
 62
     7
420
 16777215
370
    40
100
AcDbVertex
100
AcDb2dVertex
 10
-169.5088004752131
 20
391.2358089422911
 30
0.0
  0
SEQEND
  5
115
330
112
100
AcDbEntity
  8
Layer 3
370
    40
  0
POLYLINE
  5
116
330
1F
100
AcDbEntity
  8
Layer 3
 62
     7
420
 16777215
370
    40
100
AcDb2dPolyline
 66
     1
 10
0.0
 20
0.0
 30
0.0
  0
VERTEX
  5
117
330
116
100
AcDbEntity
  8
Layer 3
 62
     7
420
 16777215
370
    40
100
AcDbVertex
100
AcDb2dVertex
 10
-465.0093045861706
 20
285.5172998279361
 30
0.0
  0
VERTEX
  5
118
330
116
100
AcDbEntity
  8
Layer 3
 62
     7
420
 16777215
370
    40
100
AcDbVertex
100
AcDb2dVertex
 10
-465.0093045861706
 20
315.239191715199
 30
0.0
  0
SEQEND
  5
119
330
116
100
AcDbEntity
  8
Layer 3
370
    40
  0
POLYLINE
  5
11A
330
1F
100
AcDbEntity
  8
Layer 3
 62
     7
420
 16777215
370
    40
100
AcDb2dPolyline
 66
     1
 10
0.0
 20
0.0
 30
0.0
  0
VERTEX
  5
11B
330
11A
100
AcDbEntity
  8
Layer 3
 62
     7
420
 16777215
370
    40
100
AcDbVertex
100
AcDb2dVertex
 10
-440.00926368597
 20
285.5172998279361
 30
0.0
  0
VERTEX
  5
11C
330
11A
100
AcDbEntity
  8
Layer 3
 62
     7
420
 16777215
370
    40
100
AcDbVertex
100
AcDb2dVertex
 10
-440.00926368597
 20
315.239191715199
 30
0.0
  0
SEQEND
  5
11D
330
11A
100
AcDbEntity
  8
Layer 3
370
    40
  0
POLYLINE
  5
11E
330
1F
100
AcDbEntity
  8
Layer 3
 62
     7
420
 16777215
370
    40
100
AcDb2dPolyline
 66
     1
 10
0.0
 20
0.0
 30
0.0
  0
VERTEX
  5
11F
330
11E
100
AcDbEntity
  8
Layer 3
 62
     7
420
 16777215
370
    40
100
AcDbVertex
100
AcDb2dVertex
 10
-415.0092227857695
 20
285.5172998279361
 30
0.0
  0
VERTEX
  5
120
330
11E
100
AcDbEntity
  8
Layer 3
 62
     7
420
 16777215
370
    40
100
AcDbVertex
100
AcDb2dVertex
 10
-415.0092227857695
 20
315.239191715199
 30
0.0
  0
SEQEND
  5
121
330
11E
100
AcDbEntity
  8
Layer 3
370
    40
  0
POLYLINE
  5
122
330
1F
100
AcDbEntity
  8
Layer 3
 62
     7
420
 16777215
370
    40
100
AcDb2dPolyline
 66
     1
 10
0.0
 20
0.0
 30
0.0
  0
VERTEX
  5
123
330
122
100
AcDbEntity
  8
Layer 3
 62
     7
420
 16777215
370
    40
100
AcDbVertex
100
AcDb2dVertex
 10
-391.0092937647051
 20
277.6735012526089
 30
0.0
  0
VERTEX
  5
124
330
122
100
AcDbEntity
  8
Layer 3
 62
     7
420
 16777215
370
    40
100
AcDbVertex
100
AcDb2dVertex
 10
-391.0092937647051
 20
307.3953931398718
 30
0.0
  0
SEQEND
  5
125
330
122
100
AcDbEntity
  8
Layer 3
370
    40
  0
POLYLINE
  5
126
330
1F
100
AcDbEntity
  8
Layer 3
 62
     7
420
 16777215
370
    40
100
AcDb2dPolyline
 66
     1
 10
0.0
 20
0.0
 30
0.0
  0
VERTEX
  5
127
330
126
100
AcDbEntity
  8
Layer 3
 62
     7
420
 16777215
370
    40
100
AcDbVertex
100
AcDb2dVertex
 10
-197.0089488183665
 20
285.5172998279361
 30
0.0
  0
VERTEX
  5
128
330
126
100
AcDbEntity
  8
Layer 3
 62
     7
420
 16777215
370
    40
100
AcDbVertex
100
AcDb2dVertex
 10
-197.0089488183665
 20
315.239191715199
 30
0.0
  0
SEQEND
  5
129
330
126
100
AcDbEntity
  8
Layer 3
370
    40
  0
POLYLINE
  5
12A
330
1F
100
AcDbEntity
  8
Layer 3
 62
     7
420
 16777215
370
    40
100
AcDb2dPolyline
 66
     1
 10
0.0
 20
0.0
 30
0.0
  0
VERTEX
  5
12B
330
12A
100
AcDbEntity
  8
Layer 3
 62
     7
420
 16777215
370
    40
100
AcDbVertex
100
AcDb2dVertex
 10
-222.0086452087913
 20
285.5172998279361
 30
0.0
  0
VERTEX
  5
12C
330
12A
100
AcDbEntity
  8
Layer 3
 62
     7
420
 16777215
370
    40
100
AcDbVertex
100
AcDb2dVertex
 10
-222.0086452087913
 20
315.239191715199
 30
0.0
  0
SEQEND
  5
12D
330
12A
100
AcDbEntity
  8
Layer 3
370
    40
  0
POLYLINE
  5
12E
330
1F
100
AcDbEntity
  8
Layer 3
 62
     7
420
 16777215
370
    40
100
AcDb2dPolyline
 66
     1
 10
0.0
 20
0.0
 30
0.0
  0
VERTEX
  5
12F
330
12E
100
AcDbEntity
  8
Layer 3
 62
     7
420
 16777215
370
    40
100
AcDbVertex
100
AcDb2dVertex
 10
-247.0090306187677
 20
285.5172998279361
 30
0.0
  0
VERTEX
  5
130
330
12E
100
AcDbEntity
  8
Layer 3
 62
     7
420
 16777215
370
    40
100
AcDbVertex
100
AcDb2dVertex
 10
-247.0090306187677
 20
315.239191715199
 30
0.0
  0
SEQEND
  5
131
330
12E
100
AcDbEntity
  8
Layer 3
370
    40
  0
POLYLINE
  5
132
330
1F
100
AcDbEntity
  8
Layer 3
 62
     7
420
 16777215
370
    40
100
AcDb2dPolyline
 66
     1
 10
0.0
 20
0.0
 30
0.0
  0
VERTEX
  5
133
330
132
100
AcDbEntity
  8
Layer 3
 62
     7
420
 16777215
370
    40
100
AcDbVertex
100
AcDb2dVertex
 10
-271.008959639832
 20
277.6735012526089
 30
0.0
  0
VERTEX
  5
134
330
132
100
AcDbEntity
  8
Layer 3
 62
     7
420
 16777215
370
    40
100
AcDbVertex
100
AcDb2dVertex
 10
-271.008959639832
 20
307.3953931398718
 30
0.0
  0
SEQEND
  5
135
330
132
100
AcDbEntity
  8
Layer 3
370
    40
  0
POLYLINE
  5
136
330
1F
100
AcDbEntity
  8
Layer 3
 62
     7
420
 16777215
370
    40
100
AcDb2dPolyline
 66
     1
 10
0.0
 20
0.0
 30
0.0
  0
VERTEX
  5
137
330
136
100
AcDbEntity
  8
Layer 3
 62
     7
420
 16777215
370
    40
100
AcDbVertex
100
AcDb2dVertex
 10
-400.0092671476042
 20
277.6735012526089
 30
0.0
  0
VERTEX
  5
138
330
136
100
AcDbEntity
  8
Layer 3
 62
     7
420
 16777215
370
    40
100
AcDbVertex
100
AcDb2dVertex
 10
-400.0092671476042
 20
285.8693888187997
 30
0.0
  0
SEQEND
  5
139
330
136
100
AcDbEntity
  8
Layer 3
370
    40
  0
POLYLINE
  5
13A
330
1F
100
AcDbEntity
  8
Layer 3
 62
     7
420
 16777215
370
    40
100
AcDb2dPolyline
 66
     1
 10
0.0
 20
0.0
 30
0.0
  0
VERTEX
  5
13B
330
13A
100
AcDbEntity
  8
Layer 3
 62
     7
420
 16777215
370
    40
100
AcDbVertex
100
AcDb2dVertex
 10
-262.0089862569329
 20
277.6735012526089
 30
0.0
  0
VERTEX
  5
13C
330
13A
100
AcDbEntity
  8
Layer 3
 62
     7
420
 16777215
370
    40
100
AcDbVertex
100
AcDb2dVertex
 10
-262.0089862569329
 20
285.8693888187997
 30
0.0
  0
SEQEND
  5
13D
330
13A
100
AcDbEntity
  8
Layer 3
370
    40
  0
POLYLINE
  5
13E
330
1F
100
AcDbEntity
  8
Layer 3
 62
     7
420
 16777215
370
    40
100
AcDb2dPolyline
 66
     1
 10
0.0
 20
0.0
 30
0.0
  0
VERTEX
  5
13F
330
13E
100
AcDbEntity
  8
Layer 3
 62
     7
420
 16777215
370
    40
100
AcDbVertex
100
AcDb2dVertex
 10
-492.509452929324
 20
283.1315696305476
 30
0.0
  0
VERTEX
  5
140
330
13E
100
AcDbEntity
  8
Layer 3
 62
     7
420
 16777215
370
    40
100
AcDbVertex
100
AcDb2dVertex
 10
-492.509452929324
 20
358.0712308654971
 30
0.0
  0
SEQEND
  5
141
330
13E
100
AcDbEntity
  8
Layer 3
370
    40
  0
POLYLINE
  5
142
330
1F
100
AcDbEntity
  8
Layer 3
 62
     7
420
 16777215
370
    40
100
AcDb2dPolyline
 66
     1
 10
0.0
 20
0.0
 30
0.0
  0
VERTEX
  5
143
330
142
100
AcDbEntity
  8
Layer 3
 62
     7
420
 16777215
370
    40
100
AcDbVertex
100
AcDb2dVertex
 10
-469.5099802971718
 20
316.5021645532677
 30
0.0
  0
VERTEX
  5
144
330
142
100
AcDbEntity
  8
Layer 3
 62
     7
420
 16777215
370
    40
100
AcDbVertex
100
AcDb2dVertex
 10
-469.5099802971718
 20
391.279906193593
 30
0.0
  0
SEQEND
  5
145
330
142
100
AcDbEntity
  8
Layer 3
370
    40
  0
POLYLINE
  5
146
330
1F
100
AcDbEntity
  8
Layer 3
 62
     7
420
 16777215
370
    40
100
AcDb2dPolyline
 66
     1
 10
0.0
 20
0.0
 30
0.0
  0
VERTEX
  5
147
330
146
100
AcDbEntity
  8
Layer 3
 62
     7
420
 16777215
370
    40
100
AcDbVertex
100
AcDb2dVertex
 10
-451.5100335313736
 20
313.9572708394614
 30
0.0
  0
VERTEX
  5
148
330
146
100
AcDbEntity
  8
Layer 3
 62
     7
420
 16777215
370
    40
100
AcDbVertex
100
AcDb2dVertex
 10
-451.5100335313736
 20
383.2783221409512
 30
0.0
  0
SEQEND
  5
149
330
146
100
AcDbEntity
  8
Layer 3
370
    40
  0
POLYLINE
  5
14A
330
1F
100
AcDbEntity
  8
Layer 3
 62
     7
420
 16777215
370
    40
100
AcDb2dPolyline
 66
     1
 10
0.0
 20
0.0
 30
0.0
  0
VERTEX
  5
14B
330
14A
100
AcDbEntity
  8
Layer 3
 62
     7
420
 16777215
370
    40
100
AcDbVertex
100
AcDb2dVertex
 10
-443.5101720276107
 20
313.9572708394614
 30
0.0
  0
VERTEX
  5
14C
330
14A
100
AcDbEntity
  8
Layer 3
 62
     7
420
 16777215
370
    40
100
AcDbVertex
100
AcDb2dVertex
 10
-443.5101720276107
 20
383.2783221409512
 30
0.0
  0
SEQEND
  5
14D
330
14A
100
AcDbEntity
  8
Layer 3
370
    40
  0
POLYLINE
  5
14E
330
1F
100
AcDbEntity
  8
Layer 3
 62
     7
420
 16777215
370
    40
100
AcDb2dPolyline
 66
     1
 10
0.0
 20
0.0
 30
0.0
  0
VERTEX
  5
14F
330
14E
100
AcDbEntity
  8
Layer 3
 62
     7
420
 16777215
370
    40
100
AcDbVertex
100
AcDb2dVertex
 10
-217.5093475368934
 20
310.9617583389137
 30
0.0
  0
VERTEX
  5
150
330
14E
100
AcDbEntity
  8
Layer 3
 62
     7
420
 16777215
370
    40
100
AcDbVertex
100
AcDb2dVertex
 10
-217.5093475368934
 20
359.1157845057111
 30
0.0
  0
SEQEND
  5
151
330
14E
100
AcDbEntity
  8
Layer 3
370
    40
  0
POLYLINE
  5
152
330
1F
100
AcDbEntity
  8
Layer 3
 62
     7
420
 16777215
370
    40
100
AcDb2dPolyline
 66
     1
 10
0.0
 20
0.0
 30
0.0
  0
VERTEX
  5
153
330
152
100
AcDbEntity
  8
Layer 3
 62
     7
420
 16777215
370
    40
100
AcDbVertex
100
AcDb2dVertex
 10
-192.508962126917
 20
310.9617583389137
 30
0.0
  0
VERTEX
  5
154
330
152
100
AcDbEntity
  8
Layer 3
 62
     7
420
 16777215
370
    40
100
AcDbVertex
100
AcDb2dVertex
 10
-192.508962126917
 20
359.1157845057111
 30
0.0
  0
SEQEND
  5
155
330
152
100
AcDbEntity
  8
Layer 3
370
    40
  0
POLYLINE
  5
156
330
1F
100
AcDbEntity
  8
Layer 3
 62
     7
420
 16777215
370
    40
100
AcDb2dPolyline
 66
     1
 10
0.0
 20
0.0
 30
0.0
  0
VERTEX
  5
157
330
156
100
AcDbEntity
  8
Layer 3
 62
     7
420
 16777215
370
    40
100
AcDbVertex
100
AcDb2dVertex
 10
-515.8138167130559
 20
137.3508799632956
 30
0.0
  0
VERTEX
  5
158
330
156
100
AcDbEntity
  8
Layer 3
 62
     7
420
 16777215
370
    40
100
AcDbVertex
100
AcDb2dVertex
 10
-139.0472460993159
 20
137.3508799632956
 30
0.0
  0
SEQEND
  5
159
330
156
100
AcDbEntity
  8
Layer 3
370
    40
  0
POLYLINE
  5
15A
330
1F
100
AcDbEntity
  8
Layer 3
 62
     7
420
 16777215
370
    40
100
AcDb2dPolyline
 66
     1
 10
0.0
 20
0.0
 30
0.0
  0
VERTEX
  5
15B
330
15A
100
AcDbEntity
  8
Layer 3
 62
     7
420
 16777215
370
    40
100
AcDbVertex
100
AcDb2dVertex
 10
-506.0090684938969
 20
228.350725671423
 30
0.0
  0
VERTEX
  5
15C
330
15A
100
AcDbEntity
  8
Layer 3
 62
     7
420
 16777215
370
    40
100
AcDbVertex
100
AcDb2dVertex
 10
-384.6689358509524
 20
228.350725671423
 30
0.0
  0
SEQEND
  5
15D
330
15A
100
AcDbEntity
  8
Layer 3
370
    40
  0
POLYLINE
  5
15E
330
1F
100
AcDbEntity
  8
Layer 3
 62
     7
420
 16777215
370
    40
100
AcDb2dPolyline
 66
     1
 10
0.0
 20
0.0
 30
0.0
  0
VERTEX
  5
15F
330
15E
100
AcDbEntity
  8
Layer 3
 62
     7
420
 16777215
370
    40
100
AcDbVertex
100
AcDb2dVertex
 10
-278.3794017832153
 20
228.350725671423
 30
0.0
  0
VERTEX
  5
160
330
15E
100
AcDbEntity
  8
Layer 3
 62
     7
420
 16777215
370
    40
100
AcDbVertex
100
AcDb2dVertex
 10
-157.038924630495
 20
228.350725671423
 30
0.0
  0
SEQEND
  5
161
330
15E
100
AcDbEntity
  8
Layer 3
370
    40
  0
POLYLINE
  5
162
330
1F
100
AcDbEntity
  8
Layer 3
 62
     7
420
 16777215
370
    40
100
AcDb2dPolyline
 66
     1
 10
0.0
 20
0.0
 30
0.0
  0
VERTEX
  5
163
330
162
100
AcDbEntity
  8
Layer 3
 62
     7
420
 16777215
370
    40
100
AcDbVertex
100
AcDb2dVertex
 10
-506.0090684938969
 20
320.8507391982549
 30
0.0
  0
VERTEX
  5
164
330
162
100
AcDbEntity
  8
Layer 3
 62
     7
420
 16777215
370
    40
100
AcDbVertex
100
AcDb2dVertex
 10
-480.0540464951893
 20
320.8507391982549
 30
0.0
  0
SEQEND
  5
165
330
162
100
AcDbEntity
  8
Layer 3
370
    40
  0
POLYLINE
  5
166
330
1F
100
AcDbEntity
  8
Layer 3
 62
     7
420
 16777215
370
    40
100
AcDb2dPolyline
 66
     1
 10
0.0
 20
0.0
 30
0.0
  0
VERTEX
  5
167
330
166
100
AcDbEntity
  8
Layer 3
 62
     7
420
 16777215
370
    40
100
AcDbVertex
100
AcDb2dVertex
 10
-181.9087408354447
 20
320.8507391982549
 30
0.0
  0
VERTEX
  5
168
330
166
100
AcDbEntity
  8
Layer 3
 62
     7
420
 16777215
370
    40
100
AcDbVertex
100
AcDb2dVertex
 10
-157.038924630495
 20
320.8507391982549
 30
0.0
  0
SEQEND
  5
169
330
166
100
AcDbEntity
  8
Layer 3
370
    40
  0
POLYLINE
  5
16A
330
1F
100
AcDbEntity
  8
Layer 3
 62
     7
420
 16777215
370
    40
100
AcDb2dPolyline
 66
     1
 10
0.0
 20
0.0
 30
0.0
  0
VERTEX
  5
16B
330
16A
100
AcDbEntity
  8
Layer 3
 62
     7
420
 16777215
370
    40
100
AcDbVertex
100
AcDb2dVertex
 10
-264.9297401361328
 20
302.3507364928885
 30
0.0
  0
VERTEX
  5
16C
330
16A
100
AcDbEntity
  8
Layer 3
 62
     7
420
 16777215
370
    40
100
AcDbVertex
100
AcDb2dVertex
 10
-157.038924630495
 20
302.3507364928885
 30
0.0
  0
SEQEND
  5
16D
330
16A
100
AcDbEntity
  8
Layer 3
370
    40
  0
POLYLINE
  5
16E
330
1F
100
AcDbEntity
  8
Layer 3
 62
     7
420
 16777215
370
    40
100
AcDb2dPolyline
 66
     1
 10
0.0
 20
0.0
 30
0.0
  0
VERTEX
  5
16F
330
16E
100
AcDbEntity
  8
Layer 3
 62
     7
420
 16777215
370
    40
100
AcDbVertex
100
AcDb2dVertex
 10
-397.0885132684043
 20
302.3507364928885
 30
0.0
  0
VERTEX
  5
170
330
16E
100
AcDbEntity
  8
Layer 3
 62
     7
420
 16777215
370
    40
100
AcDbVertex
100
AcDb2dVertex
 10
-504.9793287740421
 20
302.3507364928885
 30
0.0
  0
SEQEND
  5
171
330
16E
100
AcDbEntity
  8
Layer 3
370
    40
  0
POLYLINE
  5
172
330
1F
100
AcDbEntity
  8
Layer 3
 62
     7
420
 16777215
370
    40
100
AcDb2dPolyline
 66
     1
 10
0.0
 20
0.0
 30
0.0
  0
VERTEX
  5
173
330
172
100
AcDbEntity
  8
Layer 3
 62
     7
420
 16777215
370
    40
100
AcDbVertex
100
AcDb2dVertex
 10
-452.8429418539289
 20
326.3510100237286
 30
0.0
  0
VERTEX
  5
174
330
172
100
AcDbEntity
  8
Layer 3
 62
     7
420
 16777215
370
    40
100
AcDbVertex
100
AcDb2dVertex
 10
-486.6348722324477
 20
326.3510100237286
 30
0.0
  0
SEQEND
  5
175
330
172
100
AcDbEntity
  8
Layer 3
370
    40
  0
POLYLINE
  5
176
330
1F
100
AcDbEntity
  8
Layer 3
 62
     7
420
 16777215
370
    40
100
AcDb2dPolyline
 66
     1
 10
0.0
 20
0.0
 30
0.0
  0
VERTEX
  5
177
330
176
100
AcDbEntity
  8
Layer 3
 62
     7
420
 16777215
370
    40
100
AcDbVertex
100
AcDb2dVertex
 10
-451.4318298122678
 20
343.3510171652784
 30
0.0
  0
VERTEX
  5
178
330
176
100
AcDbEntity
  8
Layer 3
 62
     7
420
 16777215
370
    40
100
AcDbVertex
100
AcDb2dVertex
 10
-504.9793287740421
 20
343.3510171652784
 30
0.0
  0
SEQEND
  5
179
330
176
100
AcDbEntity
  8
Layer 3
370
    40
  0
POLYLINE
  5
17A
330
1F
100
AcDbEntity
  8
Layer 3
 62
     7
420
 16777215
370
    40
100
AcDb2dPolyline
 66
     1
 10
0.0
 20
0.0
 30
0.0
  0
VERTEX
  5
17B
330
17A
100
AcDbEntity
  8
Layer 3
 62
     7
420
 16777215
370
    40
100
AcDbVertex
100
AcDb2dVertex
 10
-438.2770685332669
 20
349.3509994205445
 30
0.0
  0
VERTEX
  5
17C
330
17A
100
AcDbEntity
  8
Layer 3
 62
     7
420
 16777215
370
    40
100
AcDbVertex
100
AcDb2dVertex
 10
-459.708332665995
 20
349.3509994205445
 30
0.0
  0
SEQEND
  5
17D
330
17A
100
AcDbEntity
  8
Layer 3
370
    40
  0
POLYLINE
  5
17E
330
1F
100
AcDbEntity
  8
Layer 3
 62
     7
420
 16777215
370
    40
100
AcDb2dPolyline
 66
     1
 10
0.0
 20
0.0
 30
0.0
  0
VERTEX
  5
17F
330
17E
100
AcDbEntity
  8
Layer 3
 62
     7
420
 16777215
370
    40
100
AcDbVertex
100
AcDb2dVertex
 10
-438.2770685332669
 20
325.3512426543681
 30
0.0
  0
VERTEX
  5
180
330
17E
100
AcDbEntity
  8
Layer 3
 62
     7
420
 16777215
370
    40
100
AcDbVertex
100
AcDb2dVertex
 10
-459.2487566250829
 20
325.3512426543681
 30
0.0
  0
SEQEND
  5
181
330
17E
100
AcDbEntity
  8
Layer 3
370
    40
  0
POLYLINE
  5
182
330
1F
100
AcDbEntity
  8
Layer 3
 62
     7
420
 16777215
370
    40
100
AcDb2dPolyline
 66
     1
 10
0.0
 20
0.0
 30
0.0
  0
VERTEX
  5
183
330
182
100
AcDbEntity
  8
Layer 3
 62
     7
420
 16777215
370
    40
100
AcDbVertex
100
AcDb2dVertex
 10
-438.2770685332669
 20
337.3510349100123
 30
0.0
  0
VERTEX
  5
184
330
182
100
AcDbEntity
  8
Layer 3
 62
     7
420
 16777215
370
    40
100
AcDbVertex
100
AcDb2dVertex
 10
-459.2487566250829
 20
337.3510349100123
 30
0.0
  0
SEQEND
  5
185
330
182
100
AcDbEntity
  8
Layer 3
370
    40
  0
POLYLINE
  5
186
330
1F
100
AcDbEntity
  8
Layer 3
 62
     7
420
 16777215
370
    40
100
AcDb2dPolyline
 66
     1
 10
0.0
 20
0.0
 30
0.0
  0
VERTEX
  5
187
330
186
100
AcDbEntity
  8
Layer 3
 62
     7
420
 16777215
370
    40
100
AcDbVertex
100
AcDb2dVertex
 10
-438.2770685332669
 20
361.3509639310766
 30
0.0
  0
VERTEX
  5
188
330
186
100
AcDbEntity
  8
Layer 3
 62
     7
420
 16777215
370
    40
100
AcDbVertex
100
AcDb2dVertex
 10
-459.2487566250829
 20
361.3509639310766
 30
0.0
  0
SEQEND
  5
189
330
186
100
AcDbEntity
  8
Layer 3
370
    40
  0
POLYLINE
  5
18A
330
1F
100
AcDbEntity
  8
Layer 3
 62
     7
420
 16777215
370
    40
100
AcDb2dPolyline
 66
     1
 10
0.0
 20
0.0
 30
0.0
  0
VERTEX
  5
18B
330
18A
100
AcDbEntity
  8
Layer 3
 62
     7
420
 16777215
370
    40
100
AcDbVertex
100
AcDb2dVertex
 10
-452.7547473513251
 20
360.3510243068283
 30
0.0
  0
VERTEX
  5
18C
330
18A
100
AcDbEntity
  8
Layer 3
 62
     7
420
 16777215
370
    40
100
AcDbVertex
100
AcDb2dVertex
 10
-486.6348722324477
 20
360.3510243068283
 30
0.0
  0
SEQEND
  5
18D
330
18A
100
AcDbEntity
  8
Layer 3
370
    40
  0
POLYLINE
  5
18E
330
1F
100
AcDbEntity
  8
Layer 3
 62
     7
420
 16777215
370
    40
100
AcDb2dPolyline
 66
     1
 10
0.0
 20
0.0
 30
0.0
  0
VERTEX
  5
18F
330
18E
100
AcDbEntity
  8
Layer 3
 62
     7
420
 16777215
370
    40
100
AcDbVertex
100
AcDb2dVertex
 10
-277.8371433961121
 20
323.3510188960955
 30
0.0
  0
VERTEX
  5
190
330
18E
100
AcDbEntity
  8
Layer 3
 62
     7
420
 16777215
370
    40
100
AcDbVertex
100
AcDb2dVertex
 10
-178.0092346832078
 20
323.3510188960955
 30
0.0
  0
SEQEND
  5
191
330
18E
100
AcDbEntity
  8
Layer 3
370
    40
  0
POLYLINE
  5
192
330
1F
100
AcDbEntity
  8
Layer 3
 62
     7
420
 16777215
370
    40
100
AcDb2dPolyline
 66
     1
 10
0.0
 20
0.0
 30
0.0
  0
VERTEX
  5
193
330
192
100
AcDbEntity
  8
Layer 3
 62
     7
420
 16777215
370
    40
100
AcDbVertex
100
AcDb2dVertex
 10
-453.6077535561964
 20
343.3510171652784
 30
0.0
  0
VERTEX
  5
194
330
192
100
AcDbEntity
  8
Layer 3
 62
     7
420
 16777215
370
    40
100
AcDbVertex
100
AcDb2dVertex
 10
-160.1994573136491
 20
343.3510171652784
 30
0.0
  0
SEQEND
  5
195
330
192
100
AcDbEntity
  8
Layer 3
370
    40
  0
POLYLINE
  5
196
330
1F
100
AcDbEntity
  8
Layer 3
 62
     7
420
 16777215
370
    40
100
AcDb2dPolyline
 66
     1
 10
0.0
 20
0.0
 30
0.0
  0
VERTEX
  5
197
330
196
100
AcDbEntity
  8
Layer 3
 62
     7
420
 16777215
370
    40
100
AcDbVertex
100
AcDb2dVertex
 10
-184.218678882158
 20
328.3512337820011
 30
0.0
  0
VERTEX
  5
198
330
196
100
AcDbEntity
  8
Layer 3
 62
     7
420
 16777215
370
    40
100
AcDbVertex
100
AcDb2dVertex
 10
-160.1994573136491
 20
328.3512337820011
 30
0.0
  0
SEQEND
  5
199
330
196
100
AcDbEntity
  8
Layer 3
370
    40
  0
POLYLINE
  5
19A
330
1F
100
AcDbEntity
  8
Layer 3
 62
     7
420
 16777215
370
    40
100
AcDb2dPolyline
 66
     1
 10
0.0
 20
0.0
 30
0.0
  0
VERTEX
  5
19B
330
19A
100
AcDbEntity
  8
Layer 3
 62
     7
420
 16777215
370
    40
100
AcDbVertex
100
AcDb2dVertex
 10
-281.2767289976611
 20
365.351066937846
 30
0.0
  0
VERTEX
  5
19C
330
19A
100
AcDbEntity
  8
Layer 3
 62
     7
420
 16777215
370
    40
100
AcDbVertex
100
AcDb2dVertex
 10
-161.1999137025612
 20
365.351066937846
 30
0.0
  0
SEQEND
  5
19D
330
19A
100
AcDbEntity
  8
Layer 3
370
    40
  0
POLYLINE
  5
19E
330
1F
100
AcDbEntity
  8
Layer 3
 62
     7
420
 16777215
370
    40
100
AcDb2dPolyline
 66
     1
 10
0.0
 20
0.0
 30
0.0
  0
VERTEX
  5
19F
330
19E
100
AcDbEntity
  8
Layer 3
 62
     7
420
 16777215
370
    40
100
AcDbVertex
100
AcDb2dVertex
 10
-258.9786782690298
 20
359.3510846825799
 30
0.0
  0
VERTEX
  5
1A0
330
19E
100
AcDbEntity
  8
Layer 3
 62
     7
420
 16777215
370
    40
100
AcDbVertex
100
AcDb2dVertex
 10
-231.6514738333261
 20
359.3510846825799
 30
0.0
  0
SEQEND
  5
1A1
330
19E
100
AcDbEntity
  8
Layer 3
370
    40
  0
POLYLINE
  5
1A2
330
1F
100
AcDbEntity
  8
Layer 3
 62
     7
420
 16777215
370
    40
100
AcDb2dPolyline
 66
     1
 10
0.0
 20
0.0
 30
0.0
  0
VERTEX
  5
1A3
330
1A2
100
AcDbEntity
  8
Layer 3
 62
     7
420
 16777215
370
    40
100
AcDbVertex
100
AcDb2dVertex
 10
-258.9786782690298
 20
371.351049193112
 30
0.0
  0
VERTEX
  5
1A4
330
1A2
100
AcDbEntity
  8
Layer 3
 62
     7
420
 16777215
370
    40
100
AcDbVertex
100
AcDb2dVertex
 10
-231.6514738333261
 20
371.351049193112
 30
0.0
  0
SEQEND
  5
1A5
330
1A2
100
AcDbEntity
  8
Layer 3
370
    40
  0
POLYLINE
  5
1A6
330
1F
100
AcDbEntity
  8
Layer 3
 62
     7
420
 16777215
370
    40
100
AcDb2dPolyline
 66
     1
 10
0.0
 20
0.0
 30
0.0
  0
VERTEX
  5
1A7
330
1A6
100
AcDbEntity
  8
Layer 3
 62
     7
420
 16777215
370
    40
100
AcDbVertex
100
AcDb2dVertex
 10
-404.6346553974436
 20
371.351049193112
 30
0.0
  0
VERTEX
  5
1A8
330
1A6
100
AcDbEntity
  8
Layer 3
 62
     7
420
 16777215
370
    40
100
AcDbVertex
100
AcDb2dVertex
 10
-378.1707924598851
 20
371.351049193112
 30
0.0
  0
SEQEND
  5
1A9
330
1A6
100
AcDbEntity
  8
Layer 3
370
    40
  0
POLYLINE
  5
1AA
330
1F
100
AcDbEntity
  8
Layer 3
 62
     7
420
 16777215
370
    40
100
AcDb2dPolyline
 66
     1
 10
0.0
 20
0.0
 30
0.0
  0
VERTEX
  5
1AB
330
1AA
100
AcDbEntity
  8
Layer 3
 62
     7
420
 16777215
370
    40
100
AcDbVertex
100
AcDb2dVertex
 10
-432.5409807662607
 20
326.3510100237286
 30
0.0
  0
VERTEX
  5
1AC
330
1AA
100
AcDbEntity
  8
Layer 3
 62
     7
420
 16777215
370
    40
100
AcDbVertex
100
AcDb2dVertex
 10
-400.6162933725571
 20
326.3510100237286
 30
0.0
  0
SEQEND
  5
1AD
330
1AA
100
AcDbEntity
  8
Layer 3
370
    40
  0
POLYLINE
  5
1AE
330
1F
100
AcDbEntity
  8
Layer 3
 62
     7
420
 16777215
370
    40
100
AcDb2dPolyline
 66
     1
 10
0.0
 20
0.0
 30
0.0
  0
VERTEX
  5
1AF
330
1AE
100
AcDbEntity
  8
Layer 3
 62
     7
420
 16777215
370
    40
100
AcDbVertex
100
AcDb2dVertex
 10
-432.5409807662607
 20
360.3510243068283
 30
0.0
  0
VERTEX
  5
1B0
330
1AE
100
AcDbEntity
  8
Layer 3
 62
     7
420
 16777215
370
    40
100
AcDbVertex
100
AcDb2dVertex
 10
-400.6162933725571
 20
360.3510243068283
 30
0.0
  0
SEQEND
  5
1B1
330
1AE
100
AcDbEntity
  8
Layer 3
370
    40
  0
POLYLINE
  5
1B2
330
1F
100
AcDbEntity
  8
Layer 3
 62
     7
420
 16777215
370
    40
100
AcDb2dPolyline
 66
     1
 10
0.0
 20
0.0
 30
0.0
  0
VERTEX
  5
1B3
330
1B2
100
AcDbEntity
  8
Layer 3
 62
     7
420
 16777215
370
    40
100
AcDbVertex
100
AcDb2dVertex
 10
-382.5522677884608
 20
318.3511485199658
 30
0.0
  0
VERTEX
  5
1B4
330
1B2
100
AcDbEntity
  8
Layer 3
 62
     7
420
 16777215
370
    40
100
AcDbVertex
100
AcDb2dVertex
 10
-280.8640062862572
 20
318.3511485199658
 30
0.0
  0
SEQEND
  5
1B5
330
1B2
100
AcDbEntity
  8
Layer 3
370
    40
  0
POLYLINE
  5
1B6
330
1F
100
AcDbEntity
  8
Layer 3
 62
     7
420
 16777215
370
    40
100
AcDb2dPolyline
 66
     1
 10
0.0
 20
0.0
 30
0.0
  0
VERTEX
  5
1B7
330
1B6
100
AcDbEntity
  8
Layer 3
 62
     7
420
 16777215
370
    40
100
AcDbVertex
100
AcDb2dVertex
 10
-405.2182549576423
 20
293.3507631099894
 30
0.0
  0
VERTEX
  5
1B8
330
1B6
100
AcDbEntity
  8
Layer 3
 62
     7
420
 16777215
370
    40
100
AcDbVertex
100
AcDb2dVertex
 10
-252.4653764478274
 20
293.3507631099894
 30
0.0
  0
SEQEND
  5
1B9
330
1B6
100
AcDbEntity
  8
Layer 3
370
    40
  0
POLYLINE
  5
1BA
330
1F
100
AcDbEntity
  8
Layer 3
 62
     7
420
 16777215
370
    40
100
AcDb2dPolyline
 66
     1
 10
0.0
 20
0.0
 30
0.0
  0
VERTEX
  5
1BB
330
1BA
100
AcDbEntity
  8
Layer 3
 62
     7
420
 16777215
370
    40
100
AcDbVertex
100
AcDb2dVertex
 10
-405.2182549576423
 20
280.3510312300967
 30
0.0
  0
VERTEX
  5
1BC
330
1BA
100
AcDbEntity
  8
Layer 3
 62
     7
420
 16777215
370
    40
100
AcDbVertex
100
AcDb2dVertex
 10
-252.4653764478274
 20
280.3510312300967
 30
0.0
  0
SEQEND
  5
1BD
330
1BA
100
AcDbEntity
  8
Layer 3
370
    40
  0
POLYLINE
  5
1BE
330
1F
100
AcDbEntity
  8
Layer 3
 62
     7
420
 16777215
370
    40
100
AcDb2dPolyline
 66
     1
 10
0.0
 20
0.0
 30
0.0
  0
VERTEX
  5
1BF
330
1BE
100
AcDbEntity
  8
Layer 3
 62
     7
420
 16777215
370
    40
100
AcDbVertex
100
AcDb2dVertex
 10
-382.0513505744532
 20
368.351058065479
 30
0.0
  0
VERTEX
  5
1C0
330
1BE
100
AcDbEntity
  8
Layer 3
 62
     7
420
 16777215
370
    40
100
AcDbVertex
100
AcDb2dVertex
 10
-277.717253994135
 20
368.351058065479
 30
0.0
  0
SEQEND
  5
1C1
330
1BE
100
AcDbEntity
  8
Layer 3
370
    40
  0
POLYLINE
  5
1C2
330
1F
100
AcDbEntity
  8
Layer 3
 62
     7
420
 16777215
370
    40
100
AcDb2dPolyline
 66
     1
 10
0.0
 20
0.0
 30
0.0
  0
VERTEX
  5
1C3
330
1C2
100
AcDbEntity
  8
Layer 3
 62
     7
420
 16777215
370
    40
100
AcDbVertex
100
AcDb2dVertex
 10
-378.2307371608737
 20
228.3500366518714
 30
0.0
  0
VERTEX
  5
1C4
330
1C2
100
AcDbEntity
  8
Layer 3
 62
     7
420
 16777215
370
    40
100
AcDbVertex
100
AcDb2dVertex
 10
-284.6563698982214
 20
228.3500366518714
 30
0.0
  0
SEQEND
  5
1C5
330
1C2
100
AcDbEntity
  8
Layer 3
370
    40
  0
POLYLINE
  5
1C6
330
1F
100
AcDbEntity
  8
Layer 3
 62
     7
420
 16777215
370
    40
100
AcDb2dPolyline
 66
     1
 10
0.0
 20
0.0
 30
0.0
  0
VERTEX
  5
1C7
330
1C6
100
AcDbEntity
  8
Layer 3
 62
     7
420
 16777215
370
    40
100
AcDbVertex
100
AcDb2dVertex
 10
-373.0985750308381
 20
160.3510416149994
 30
0.0
  0
VERTEX
  5
1C8
330
1C6
100
AcDbEntity
  8
Layer 3
 62
     7
420
 16777215
370
    40
100
AcDbVertex
100
AcDb2dVertex
 10
-287.8313719919589
 20
160.3510416149994
 30
0.0
  0
SEQEND
  5
1C9
330
1C6
100
AcDbEntity
  8
Layer 3
370
    40
  0
POLYLINE
  5
1CA
330
1F
100
AcDbEntity
  8
Layer 3
 62
     7
420
 16777215
370
    40
100
AcDb2dPolyline
 66
     1
 10
0.0
 20
0.0
 30
0.0
  0
VERTEX
  5
1CB
330
1CA
100
AcDbEntity
  8
Layer 3
 62
     7
420
 16777215
370
    40
100
AcDbVertex
100
AcDb2dVertex
 10
-515.8138167130559
 20
154.3510593597333
 30
0.0
  0
VERTEX
  5
1CC
330
1CA
100
AcDbEntity
  8
Layer 3
 62
     7
420
 16777215
370
    40
100
AcDbVertex
100
AcDb2dVertex
 10
-139.0472460993159
 20
154.3510593597333
 30
0.0
  0
SEQEND
  5
1CD
330
1CA
100
AcDbEntity
  8
Layer 3
370
    40
  0
POLYLINE
  5
1CE
330
1F
100
AcDbEntity
  8
Layer 3
 62
     7
420
 16777215
370
    40
100
AcDb2dPolyline
 66
     1
 10
0.0
 20
0.0
 30
0.0
  0
VERTEX
  5
1CF
330
1CE
100
AcDbEntity
  8
Layer 3
 62
     7
420
 16777215
370
    40
100
AcDbVertex
100
AcDb2dVertex
 10
-515.8138167130559
 20
389.3525462529014
 30
0.0
  0
VERTEX
  5
1D0
330
1CE
100
AcDbEntity
  8
Layer 3
 62
     7
420
 16777215
370
    40
100
AcDbVertex
100
AcDb2dVertex
 10
-139.0472460993159
 20
389.3525462529014
 30
0.0
  0
SEQEND
  5
1D1
330
1CE
100
AcDbEntity
  8
Layer 3
370
    40
  0
POLYLINE
  5
1D2
330
1F
100
AcDbEntity
  8
Layer 3
 62
     7
420
 16777215
370
    40
100
AcDb2dPolyline
 66
     1
 10
0.0
 20
0.0
 30
0.0
  0
VERTEX
  5
1D3
330
1D2
100
AcDbEntity
  8
Layer 3
 62
     7
420
 16777215
370
    40
100
AcDbVertex
100
AcDb2dVertex
 10
-515.8138167130559
 20
383.3510137036442
 30
0.0
  0
VERTEX
  5
1D4
330
1D2
100
AcDbEntity
  8
Layer 3
 62
     7
420
 16777215
370
    40
100
AcDbVertex
100
AcDb2dVertex
 10
-139.0472460993159
 20
383.3510137036442
 30
0.0
  0
SEQEND
  5
1D5
330
1D2
100
AcDbEntity
  8
Layer 3
370
    40
  0
POLYLINE
  5
1D6
330
1F
100
AcDbEntity
  8
Layer 3
370
     0
100
AcDb2dPolyline
 66
     1
 10
0.0
 20
0.0
 30
0.0
  0
VERTEX
  5
1D7
330
1D6
100
AcDbEntity
  8
Layer 3
370
     0
100
AcDbVertex
100
AcDb2dVertex
 10
-331.0163614075603
 20
3152.77707908133
 30
0.0
  0
VERTEX
  5
1D8
330
1D6
100
AcDbEntity
  8
Layer 3
370
     0
100
AcDbVertex
100
AcDb2dVertex
 10
-331.0163614075603
 20
-2626.785065552152
 30
0.0
  0
SEQEND
  5
1D9
330
1D6
100
AcDbEntity
  8
Layer 3
370
     0
  0
ENDSEC
  0
SECTION
  2
OBJECTS
  0
DICTIONARY
  5
C
330
0
100
AcDbDictionary
281
     1
  3
ACAD_GROUP
350
D
  3
ACAD_LAYOUT
350
1A
  3
ACAD_MLINESTYLE
350
17
  3
ACAD_PLOTSETTINGS
350
19
  3
ACAD_PLOTSTYLENAME
350
E
  3
ACAD_TABLESTYLE
350
1DA
  3
ACAD_VISUALSTYLE
350
2A
  0
DICTIONARY
  5
D
102
{ACAD_REACTORS
330
C
102
}
330
C
100
AcDbDictionary
281
     1
  0
DICTIONARY
  5
1A
102
{ACAD_REACTORS
330
C
102
}
330
C
100
AcDbDictionary
281
     1
  3
Layout1
350
1E
  3
Layout2
350
26
  3
Model
350
22
  0
DICTIONARY
  5
17
102
{ACAD_REACTORS
330
C
102
}
330
C
100
AcDbDictionary
281
     1
  3
Standard
350
18
  0
DICTIONARY
  5
19
102
{ACAD_REACTORS
330
C
102
}
330
C
100
AcDbDictionary
281
     1
  0
ACDBDICTIONARYWDFLT
  5
E
102
{ACAD_REACTORS
330
C
102
}
330
C
100
AcDbDictionary
281
     1
  3
Normal
350
F
100
AcDbDictionaryWithDefault
340
F
  0
DICTIONARY
  5
1DA
102
{ACAD_REACTORS
330
C
102
}
330
C
100
AcDbDictionary
281
     1
  0
DICTIONARY
  5
2A
102
{ACAD_REACTORS
330
C
102
}
330
C
100
AcDbDictionary
281
     1
  3
2dWireframe
350
2F
  3
3D Hidden
350
31
  3
3dWireframe
350
30
  3
Basic
350
32
  3
Brighten
350
36
  3
ColorChange
350
3A
  3
Conceptual
350
34
  3
Dim
350
35
  3
Facepattern
350
39
  3
Flat
350
2B
  3
FlatWithEdges
350
2C
  3
Gouraud
350
2D
  3
GouraudWithEdges
350
2E
  3
Linepattern
350
38
  3
Realistic
350
33
  3
Thicken
350
37
  0
LAYOUT
  5
1E
102
{ACAD_REACTORS
330
1A
102
}
330
1A
100
AcDbPlotSettings
  1

  2
none_device
  4

  6

 40
0.0
 41
0.0
 42
0.0
 43
0.0
 44
0.0
 45
0.0
 46
0.0
 47
0.0
 48
0.0
 49
0.0
140
0.0
141
0.0
142
1.0
143
1.0
 70
   688
 72
     0
 73
     0
 74
     5
  7

 75
    16
 76
     0
 77
     2
 78
   300
147
1.0
148
0.0
149
0.0
100
AcDbLayout
  1
Layout1
 70
     1
 71
     1
 10
0.0
 20
0.0
 11
12.0
 21
9.0
 12
0.0
 22
0.0
 32
0.0
 14
1.000000000000000E+20
 24
1.000000000000000E+20
 34
1.000000000000000E+20
 15
-1.000000000000000E+20
 25
-1.000000000000000E+20
 35
-1.000000000000000E+20
146
0.0
 13
0.0
 23
0.0
 33
0.0
 16
1.0
 26
0.0
 36
0.0
 17
0.0
 27
1.0
 37
0.0
 76
     0
330
1B
  0
LAYOUT
  5
26
102
{ACAD_REACTORS
330
1A
102
}
330
1A
100
AcDbPlotSettings
  1

  2
none_device
  4

  6

 40
0.0
 41
0.0
 42
0.0
 43
0.0
 44
0.0
 45
0.0
 46
0.0
 47
0.0
 48
0.0
 49
0.0
140
0.0
141
0.0
142
1.0
143
1.0
 70
   688
 72
     0
 73
     0
 74
     5
  7

 75
    16
 76
     0
 77
     2
 78
   300
147
1.0
148
0.0
149
0.0
100
AcDbLayout
  1
Layout2
 70
     1
 71
     2
 10
0.0
 20
0.0
 11
0.0
 21
0.0
 12
0.0
 22
0.0
 32
0.0
 14
0.0
 24
0.0
 34
0.0
 15
0.0
 25
0.0
 35
0.0
146
0.0
 13
0.0
 23
0.0
 33
0.0
 16
1.0
 26
0.0
 36
0.0
 17
0.0
 27
1.0
 37
0.0
 76
     0
330
23
  0
LAYOUT
  5
22
102
{ACAD_REACTORS
330
1A
102
}
330
1A
100
AcDbPlotSettings
  1

  2
none_device
  4

  6

 40
0.0
 41
0.0
 42
0.0
 43
0.0
 44
0.0
 45
0.0
 46
0.0
 47
0.0
 48
0.0
 49
0.0
140
0.0
141
0.0
142
1.0
143
1.0
 70
  1712
 72
     0
 73
     0
 74
     0
  7

 75
     0
 76
     0
 77
     2
 78
   300
147
1.0
148
0.0
149
0.0
100
AcDbLayout
  1
Model
 70
     1
 71
     0
 10
0.0
 20
0.0
 11
12.0
 21
9.0
 12
0.0
 22
0.0
 32
0.0
 14
1.000000000000000E+20
 24
1.000000000000000E+20
 34
1.000000000000000E+20
 15
-1.000000000000000E+20
 25
-1.000000000000000E+20
 35
-1.000000000000000E+20
146
0.0
 13
0.0
 23
0.0
 33
0.0
 16
1.0
 26
0.0
 36
0.0
 17
0.0
 27
1.0
 37
0.0
 76
     0
330
1F
331
29
  0
MLINESTYLE
  5
18
102
{ACAD_REACTORS
330
17
102
}
330
17
100
AcDbMlineStyle
  2
Standard
 70
     0
  3

 62
   256
 51
90.0
 52
90.0
 71
     2
 49
0.5
 62
   256
  6
BYLAYER
 49
-0.5
 62
   256
  6
BYLAYER
  0
ACDBPLACEHOLDER
  5
F
102
{ACAD_REACTORS
330
E
102
}
330
E
  0
VISUALSTYLE
  5
2F
102
{ACAD_REACTORS
330
2A
102
}
330
2A
100
AcDbVisualStyle
  2
2dWireframe
 70
     4
 71
     0
 72
     2
 73
     0
 90
        0
 40
-0.6
 41
-30.0
 62
     5
 63
     7
421
 16777215
 74
     1
 91
        4
 64
     7
 65
   257
 75
     1
175
     1
 42
1.0
 92
        0
 66
   257
 43
1.0
 76
     1
 77
     6
 78
     2
 67
     7
 79
     5
170
     0
171
     0
290
     0
174
     0
 93
        1
 44
0.0
173
     0
291
     0
 45
0.0
1001
ACAD
1000
AcDbSavedByObjectVersion
1070
     0
  0
VISUALSTYLE
  5
31
102
{ACAD_REACTORS
330
2A
102
}
330
2A
100
AcDbVisualStyle
  2
3D Hidden
 70
     6
 71
     1
 72
     2
 73
     2
 90
        0
 40
-0.6
 41
-30.0
 62
     5
 63
     7
421
 16777215
 74
     2
 91
        2
 64
     7
 65
   257
 75
     2
175
     1
 42
40.0
 92
        0
 66
   257
 43
1.0
 76
     1
 77
     6
 78
     2
 67
     7
 79
     3
170
     0
171
     0
290
     0
174
     0
 93
        1
 44
0.0
173
     0
291
     0
 45
0.0
1001
ACAD
1000
AcDbSavedByObjectVersion
1070
     0
  0
VISUALSTYLE
  5
30
102
{ACAD_REACTORS
330
2A
102
}
330
2A
100
AcDbVisualStyle
  2
3dWireframe
 70
     5
 71
     0
 72
     2
 73
     0
 90
        0
 40
-0.6
 41
-30.0
 62
     5
 63
     7
421
 16777215
 74
     1
 91
        4
 64
     7
 65
   257
 75
     1
175
     1
 42
1.0
 92
        0
 66
   257
 43
1.0
 76
     1
 77
     6
 78
     2
 67
     7
 79
     5
170
     0
171
     0
290
     0
174
     0
 93
        1
 44
0.0
173
     0
291
     0
 45
0.0
1001
ACAD
1000
AcDbSavedByObjectVersion
1070
     0
  0
VISUALSTYLE
  5
32
102
{ACAD_REACTORS
330
2A
102
}
330
2A
100
AcDbVisualStyle
  2
Basic
 70
     7
 71
     1
 72
     0
 73
     1
 90
        0
 40
-0.6
 41
-30.0
 62
     5
 63
     7
421
 16777215
 74
     0
 91
        4
 64
     7
 65
   257
 75
     1
175
     1
 42
1.0
 92
        8
 66
     7
 43
1.0
 76
     1
 77
     6
 78
     2
 67
     7
 79
     5
170
     0
171
     0
290
     0
174
     0
 93
        1
 44
0.0
173
     0
291
     1
 45
0.0
1001
ACAD
1000
AcDbSavedByObjectVersion
1070
     0
  0
VISUALSTYLE
  5
36
102
{ACAD_REACTORS
330
2A
102
}
330
2A
100
AcDbVisualStyle
  2
Brighten
 70
    12
 71
     2
 72
     2
 73
     0
 90
        0
 40
-0.6
 41
-30.0
 62
     5
 63
     7
421
 16777215
 74
     1
 91
        4
 64
     7
 65
   257
 75
     1
175
     1
 42
1.0
 92
        8
 66
     7
 43
1.0
 76
     1
 77
     6
 78
     2
 67
     7
 79
     5
170
     0
171
     0
290
     0
174
     0
 93
        1
 44
50.0
173
     0
291
     1
 45
0.0
1001
ACAD
1000
AcDbSavedByObjectVersion
1070
     0
  0
VISUALSTYLE
  5
3A
102
{ACAD_REACTORS
330
2A
102
}
330
2A
100
AcDbVisualStyle
  2
ColorChange
 70
    16
 71
     2
 72
     2
 73
     3
 90
        0
 40
-0.6
 41
-30.0
 62
     5
 63
     8
421
  8421504
 74
     1
 91
        4
 64
     7
 65
   257
 75
     1
175
     1
 42
1.0
 92
        8
 66
     8
424
  8421504
 43
1.0
 76
     1
 77
     6
 78
     2
 67
     7
 79
     5
170
     0
171
     0
290
     0
174
     0
 93
        1
 44
0.0
173
     0
291
     1
 45
0.0
1001
ACAD
1000
AcDbSavedByObjectVersion
1070
     0
  0
VISUALSTYLE
  5
34
102
{ACAD_REACTORS
330
2A
102
}
330
2A
100
AcDbVisualStyle
  2
Conceptual
 70
     9
 71
     3
 72
     2
 73
     0
 90
        0
 40
-0.6
 41
-30.0
 62
     5
 63
     7
421
 16777215
 74
     2
 91
        2
 64
     7
 65
   257
 75
     1
175
     1
 42
40.0
 92
        8
 66
     7
 43
1.0
 76
     1
 77
     6
 78
     2
 67
     7
 79
     3
170
     0
171
     0
290
     0
174
     0
 93
        1
 44
0.0
173
     0
291
     0
 45
0.0
1001
ACAD
1000
AcDbSavedByObjectVersion
1070
     0
  0
VISUALSTYLE
  5
35
102
{ACAD_REACTORS
330
2A
102
}
330
2A
100
AcDbVisualStyle
  2
Dim
 70
    11
 71
     2
 72
     2
 73
     0
 90
        0
 40
-0.6
 41
-30.0
 62
     5
 63
     7
421
 16777215
 74
     1
 91
        4
 64
     7
 65
   257
 75
     1
175
     1
 42
1.0
 92
        8
 66
     7
 43
1.0
 76
     1
 77
     6
 78
     2
 67
     7
 79
     5
170
     0
171
     0
290
     0
174
     0
 93
        1
 44
-50.0
173
     0
291
     1
 45
0.0
1001
ACAD
1000
AcDbSavedByObjectVersion
1070
     0
  0
VISUALSTYLE
  5
39
102
{ACAD_REACTORS
330
2A
102
}
330
2A
100
AcDbVisualStyle
  2
Facepattern
 70
    15
 71
     2
 72
     2
 73
     0
 90
        0
 40
-0.6
 41
-30.0
 62
     5
 63
     7
421
 16777215
 74
     1
 91
        4
 64
     7
 65
   257
 75
     1
175
     1
 42
1.0
 92
        8
 66
     7
 43
1.0
 76
     1
 77
     6
 78
     2
 67
     7
 79
     5
170
     0
171
     0
290
     0
174
     0
 93
        1
 44
0.0
173
     0
291
     1
 45
0.0
1001
ACAD
1000
AcDbSavedByObjectVersion
1070
     0
  0
VISUALSTYLE
  5
2B
102
{ACAD_REACTORS
330
2A
102
}
330
2A
100
AcDbVisualStyle
  2
Flat
 70
     0
 71
     2
 72
     1
 73
     1
 90
        2
 40
-0.6
 41
30.0
 62
     5
 63
     7
421
 16777215
 74
     0
 91
        4
 64
     7
 65
   257
 75
     1
175
     1
 42
1.0
 92
        8
 66
     7
 43
1.0
 76
     1
 77
     6
 78
     2
 67
     7
 79
     5
170
     0
171
     0
290
     0
174
     0
 93
       13
 44
0.0
173
     0
291
     1
 45
0.0
1001
ACAD
1000
AcDbSavedByObjectVersion
1070
     0
  0
VISUALSTYLE
  5
2C
102
{ACAD_REACTORS
330
2A
102
}
330
2A
100
AcDbVisualStyle
  2
FlatWithEdges
 70
     1
 71
     2
 72
     1
 73
     1
 90
        2
 40
-0.6
 41
30.0
 62
     5
 63
     7
421
 16777215
 74
     1
 91
        4
 64
     7
 65
   257
 75
     1
175
     1
 42
1.0
 92
        0
 66
   257
 43
1.0
 76
     1
 77
     6
 78
     2
 67
     7
 79
     5
170
     0
171
     0
290
     0
174
     0
 93
       13
 44
0.0
173
     0
291
     1
 45
0.0
1001
ACAD
1000
AcDbSavedByObjectVersion
1070
     0
  0
VISUALSTYLE
  5
2D
102
{ACAD_REACTORS
330
2A
102
}
330
2A
100
AcDbVisualStyle
  2
Gouraud
 70
     2
 71
     2
 72
     2
 73
     1
 90
        2
 40
-0.6
 41
30.0
 62
     5
 63
     7
421
 16777215
 74
     0
 91
        4
 64
     7
 65
   257
 75
     1
175
     1
 42
1.0
 92
        0
 66
     7
 43
1.0
 76
     1
 77
     6
 78
     2
 67
     7
 79
     5
170
     0
171
     0
290
     0
174
     0
 93
       13
 44
0.0
173
     0
291
     1
 45
0.0
1001
ACAD
1000
AcDbSavedByObjectVersion
1070
     0
  0
VISUALSTYLE
  5
2E
102
{ACAD_REACTORS
330
2A
102
}
330
2A
100
AcDbVisualStyle
  2
GouraudWithEdges
 70
     3
 71
     2
 72
     2
 73
     1
 90
        2
 40
-0.6
 41
30.0
 62
     5
 63
     7
421
 16777215
 74
     1
 91
        4
 64
     7
 65
   257
 75
     1
175
     1
 42
1.0
 92
        0
 66
   257
 43
1.0
 76
     1
 77
     6
 78
     2
 67
     7
 79
     5
170
     0
171
     0
290
     0
174
     0
 93
       13
 44
0.0
173
     0
291
     1
 45
0.0
1001
ACAD
1000
AcDbSavedByObjectVersion
1070
     0
  0
VISUALSTYLE
  5
38
102
{ACAD_REACTORS
330
2A
102
}
330
2A
100
AcDbVisualStyle
  2
Linepattern
 70
    14
 71
     2
 72
     2
 73
     0
 90
        0
 40
-0.6
 41
-30.0
 62
     5
 63
     7
421
 16777215
 74
     1
 91
        4
 64
     7
 65
   257
 75
     7
175
     7
 42
1.0
 92
        8
 66
     7
 43
1.0
 76
     1
 77
     6
 78
     2
 67
     7
 79
     5
170
     0
171
     0
290
     0
174
     0
 93
        1
 44
0.0
173
     0
291
     1
 45
0.0
1001
ACAD
1000
AcDbSavedByObjectVersion
1070
     0
  0
VISUALSTYLE
  5
33
102
{ACAD_REACTORS
330
2A
102
}
330
2A
100
AcDbVisualStyle
  2
Realistic
 70
     8
 71
     2
 72
     2
 73
     0
 90
        0
 40
-0.6
 41
-30.0
 62
     5
 63
     7
421
 16777215
 74
     1
 91
        0
 64
     7
 65
   257
 75
     1
175
     1
 42
1.0
 92
        8
 66
     8
424
  7895160
 43
1.0
 76
     1
 77
     6
 78
     2
 67
     7
 79
     5
170
     0
171
     0
290
     0
174
     0
 93
       13
 44
0.0
173
     0
291
     0
 45
0.0
1001
ACAD
1000
AcDbSavedByObjectVersion
1070
     0
  0
VISUALSTYLE
  5
37
102
{ACAD_REACTORS
330
2A
102
}
330
2A
100
AcDbVisualStyle
  2
Thicken
 70
    13
 71
     2
 72
     2
 73
     0
 90
        0
 40
-0.6
 41
-30.0
 62
     5
 63
     7
421
 16777215
 74
     1
 91
        4
 64
     7
 65
   257
 75
     1
175
     1
 42
1.0
 92
       12
 66
     7
 43
1.0
 76
     1
 77
     6
 78
     2
 67
     7
 79
     5
170
     0
171
     0
290
     0
174
     0
 93
        1
 44
0.0
173
     0
291
     1
 45
0.0
1001
ACAD
1000
AcDbSavedByObjectVersion
1070
     0
  0
ENDSEC
  0
EOF
